>
 >
What Might Have Been

What Might Have Been Guitar Tabs

Little Texas - What Might Have Been chords, tabs, tablatures, lyrics

Guitar lessons | Add/correct | Request | Top 50 tabs Artists:  A B C D E F G H I J K L M N O P Q R S T U V W X Y Z 0-9

What Might Have Been Guitar Tabs – Little Texas

CD, Sheet music, Poster

Do you like What Might Have Been? Share with your friends now
ChordsChords v2Chords v3TabsUkulele
   -----------------------------------------------------------------------------------------
   |  This is the first song that I've ever tabbed out. Its pretty close to the original   |
   |  and the picking pattern and timing are not that hard to figure out. It's a great     |
   |  song and I couldn't find a decent version of it tabbed so I decided to do it myself. |
   |  If you see anythijng that needs to be corrected please feel free to do so. Have fun! |
   -----------------------------------------------------------------------------------------

--------------------------------------------------------------------------------------------------------
                      
                    WHAT MIGHT HAVE BEEN  -  as performed by Little Texas

--------------------------------------------------------------------------------------------------------
                 




Standard tuning: E, A, D, G, B, E


(Everything is fingerpicked until the bridge)

Intro:

E-|----------------------------------------------------------------------------------------------------||
B-|--3--------3---3--------3-----------3---1-----------3---1---0---------3---------------3r0-----1-----||
G-|-------0------------0-----------0-----------0---0-----------------0-------0-----0-----0-------0-----||
D-|---------0------------0-------2---2---2---2---1---1---1---1------------------0h2--------------2-----||
A-|----------------------------------------------------------------------------------------------------||
E-|--3--3-------3-3--3-------3-------------------------------------3---3---3---------3-----------------|
 
Verse 1:
    
           Sure I Think about you now and then

E-|---------------------------------------------------------------||
B-|--3--------3---3--------3-----------3-------------3------------||
G-|-------0------------0-------------------2-------------2---4----||
D-|---------0------------0--------4------------4---4-------4------||
A-|---------------------------------------------------------------||
E-|--3--3-------3-3--3-------3----3--3---3---3---3-----3----------|
                 But it's been a long, long time

E-|------------------------------------------------------------------------||
B-|-------3----------------3---1---0---------3---------------3r0-----1-----||
G-|--0---------0---0---0-----------------0-------0-----0-----0-------0-----||
D-|------------------1---1---1---1------------------0h2--------------2-----||
A-|--3--3---3----3---------------------------------------------------------||
E-|------------------------------------3---3---3---------3-----------------|
          I have a good life now. I moved on. 

E-|---------------------------------------------------------------||
B-|--3--------3---3--------3-----------3-------------3------------||
G-|-------0------------0-------------------2-------------2---4----||
D-|---------0------------0--------4------------4---4-------4------||
A-|---------------------------------------------------------------||
E-|--3--3-------3-3--3-------3----3--3---3---3---3-----3----------|

               But when you cross my mind

E-|-----------------------------------------------------------------||
B-|-------3----------------3---1---0-------3------------------------||
G-|--0---------0---0---0--------------2---------2-2-----0--------0--||
D-|------------------1---1---1---1----0--0---0-------0--------0-----||
A-|--3--3---3----3--------------------------------0--------2--------||
E-|-----------------------------------------------------------------|
Chorus: 
 
     I try not to think about what might have been      'cause

E-|----------------------------------------------------------||
B-|--3---------3----3--------3-------3-----------------------||
G-|-------0--------------0------0--------0---0------0-----0--||
D-|-----------------------------------------------0-----0----||
A-|--3--3---3----3--3--3---3---------------------------------||
E-|-----------------------------3--3---3---3---3------2------|

     That was then      and we have taken different roads

E-|------------------------------------------------------------------------|
B-|---------3----------------3--------3-----------3------------------------||
G-|--0-----------0--------0-------0---------2-------------0-------0--------||
D-|-----------2-----------------------0--0-----0-------0-------0-----------|
A-|------2---------0h2--3-------3-------------------0-------2--------------||
E-|--0---------------------------------------------------------------------|


       We can't go back again   There's no use givin' in
E-|-------------------------------------------------------------------||
B-|--3---------3----3--------3-------3-----------------3--------------||
G-|-------0--------------0------0--------0-----0--0--------0------0---||
D-|------------------------------------------0------------------0-----|
A-|--3--3---3----3--3--3---3----2--2---2---2------2--2---2---2--------||
E-|-------------------------------------------------------------------|

       and there's no way to know                What might have been

E-|------------------------------------------------------------------||
B-|--------3-------------3-------------3---------3-------------------||
G-|--2----------2--0----------0--0---------0-----0-------------------||
D-|-----0-------------0----0--------0----0---0-----------------------|
A-|--0-------0-----2-------------3---------------3-------------------||
E-|------------------------------------------------------------------|



E-|----------------------------------------------------------------------------------------------------||
B-|--3--------3---3--------3-----------3---1-----------3---1---0---------3---------------3r0-----1-----||
G-|-------0------------0-----------0-----------0---0-----------------0-------0-----0-----0-------0-----||
D-|---------0------------0-------2---2---2---2---1---1---1---1------------------0h2--------------2-----||
A-|----------------------------------------------------------------------------------------------------||
E-|--3--3-------3-3--3-------3-------------------------------------3---3---3---------3-----------------| 


       and there's no way to know                What might have been  (changes here leading into the bridge)

E-|-----------------------------------------------------------------------------------------------------||
B-|--------3-------------3-------------3---------3------------------3----------3------------------------||-
G-|--2----------2--0----------0--0---------0-----0------------------------0--------0--0-----0-------0---||
D-|-----0-------------0----0--------0----0---0-------------------------------0-----------0-------0------|-
A-|--0-------0-----2-------------3---------------3------------------------------------------------------||
E-|-----------------------------------------------------------------3--3---------3----3-------2---------|


Bridge: (strum)

Em                         Bm
That same old look in your eyes 

                 C
it's a beautiful night 

                  G     D/F#
I'm so tempted to stay 

Em                         Bm 
But too much time has gone by 

                        C
We should just say good-bye 

                  D
and turn and walk away 



E-|--------------------||
B-|--------------------||
G-|--2-----0--------0--||
D-|-----0--------0-----|
A-|--0--------2--------||
E-|--------------------|


Back into chorus:

Ending:

                                                (slows down)

E-|----------------------------------------------------------------3---||
B-|--3--------3---3--------3-----------3---1-----------3---1---0---3---||
G-|-------0------------0-----------0-----------0---0---------------0---||
D-|---------0------------0-------2---2---2---2---1---1---1---1-----0---||
A-|----------------------------------------------------------------2---||
E-|--3--3-------3-3--3-------3-------------------------------------3---|




--------------------------------------------------------------------------------

Thanks! - Patrick





Comments


Popular Little Texas tabs & chords
Amy's Back In Austin Chords
Bad For Us Chords
God Blessed Texas Chords
I'd Rather Miss You Chords
Kick A Little Chords
Life Goes On Chords
Southern Grace Chords
What Might Have Been 1 Chords
Peacful Easy Feeling Tabs
God Blessed Texas Ukulele


Song lyrics



↑ Back to top | Tablatures and chords are parodies/interpretations of the original songs. You may use it for private study, scholarship, research or language learning purposes only
© 2014 AZChords.com Contact us | Privacy policy | DMCA | Add/correct tabs | Request tabs | Top 50 tabs