» » »

Little River Band, Reminiscing Chords (ver.1)

Artists:  A B C D E F G H I J K L M N O P Q R S T U V W X Y Z # 

Reminiscing Chords (ver.1)

Little River Band Tabs
Rating:
4/5 (3 votes)
Reminiscing lessons Tabs too difficult? Try these video lessons and learn fast
                Little River Band


Simplified Arrangement for single acoustic guitar

This is the key used in live performances (one step higher than the original recording). 
This key allows for easier open chords than the studio version.


Intro:

|--------1------1--5-5-3------|--------1------1--8-8-6------|
|--1--3--1---3-----3-3-3------|--1--3--1---3-----6-6-6------|
|--2-----2---------3-3-3------|--2-----2---------6-6-6------|
|--3-----3--------------------|--3-----3--------------------|
|-----------------------------|-----------------------------|
|-----------------------------|-----------------------------|

|---6---4-----4---2----0--2--0---0--2--0--|
|---4---4-----2---2----0--2--0---0--2--0--|
|---4---4-----2---2----1--2--1---1--2--1--|
|---4---4-----2---2----2-----2---2-----2--|
|----------------------2-----2---2-----2--|
|----------------------0-----0---0-----0--|


[Verse 1]

Amaj7
Friday night it was late I was walking you home we got down to the gate and I was
C+6/A
dreaming of the night
C#9
Would it turn out right
        Amaj7
How to tell you girl
        C+6/A
I wanna build my world around you
C#9
Tell you that it's true
Amaj7
I wanna make you understand
     C9                      E  F#m  E
I'm talking about a lifetime plan


[Verse 2]

Amaj7
That's the way it began we were hand in hand Glenn Miller's band was
C+6/A
better than before
C#9
We yelled and screamed for more
        Amaj7
And the Porter tune (Night and Day)
        C+6/A
Made us dance across the room
   C#9
It ended all too soon
Amaj7
And on the way back home
  C9                        E  F#m  E
I promised you'd never be alone


[Chorus]

Amaj7
Hurry don't be late
C+6/A
I can hardly wait
   C#9
I said to myself when we're old
         Amaj7
We'll go dancing in the dark
C9
Walking through the park
         E      F#m  E
And reminiscing

[Interlude]

|--------1------1--5-5-3------|--------1------1--8-8-6------|
|--1--3--1---3-----3-3-3------|--1--3--1---3-----6-6-6------|
|--2-----2---------3-3-3------|--2-----2---------6-6-6------|
|--3-----3--------------------|--3-----3--------------------|
|-----------------------------|-----------------------------|
|-----------------------------|-----------------------------|

|---6-7-4-----4-5-2----0--2--0---0--2--0--|
|---4---4-----2---2----0--2--0---0--2--0--|
|---4---4-----2---2----1--2--1---1--2--1--|
|---4---4-----2---2----2-----2---2-----2--|
|----------------------2-----2---2-----2--|
|----------------------0-----0---0-----0--|


[Verse 3]

Amaj7
Friday night it was late I was walking you home we got down to the gate and I was
C+6/A
dreaming of the night
C#9
Would it turn out right
           Amaj7
Now as the years roll on
             C+6/A
Each time we hear our favorite song
    C#9
The memories come along
Amaj7
Oh the times we're missing
C9                       E      F#m  E
Spending the hours reminiscing


[repeat chorus]

[Guitar solo]

| Amaj7 | Amaj7 | C+6/A |  C+6/A  |C#9 | C#9 |

| Amaj7 |  C9   |  E  F#m  E |

Repeat and ad lib and fade
|  E  F#m  E |

-----------------------------------------

Chord List:

Amaj7:  x02120
C+6/A:  x02110  or you can just play Am:     x02210
C#9:    x43444
C9:     x32333
E:      022100
F#m:    244222
            
Submit corrections

comments powered by Disqus
↑ Back to top | Little River Band Chords for Reminiscing. Lyrics for acoustic guitar and electric guitar. Tablatures and chords are parodies/interpretations of the original songs. You may use it for private study, scholarship, research or language learning purposes only