>
 >
Regina Di Cuori

Regina Di Cuori Bass Tabs

Litfiba - Regina Di Cuori chords, tabs, tablatures, lyrics

Guitar lessons | Add/correct | Request | Top 50 tabs Artists:  A B C D E F G H I J K L M N O P Q R S T U V W X Y Z 0-9

Regina Di Cuori Bass Tabs – Litfiba

CD, Sheet music, Poster

Do you like Regina Di Cuori? Share with your friends now
Bass TabsChordsTabsUkulele
intro: X2

G:---------------------------------------------------------------
D:---------------------------------------------------------------
A:-----------------0--0--0-0-0--3--3--3--3--5--5--5-5--5---------
E:--0--0--0--0-0-------------------------------------------------

Versi: X2
G:---------------------------------------------------------------
D:---------------------------------------------------------------
A:----------------------------------5--5--5--5-2--2-2-2--2-------
E:--2----2-2---2----2-2---2----2-2-------------------------------

       X1
G:---------------------------------------------------------------
D:---------------------------------------------------------------
A:------------5--5--5--5-2--2-2-2--2--------------------------------------
E:--2----2-2--------------------------------------------------------

       X1
G:---------------------------------------------------------------
D:---------------------------------------------------------------
A:-----------------------------------5--5--5--5-2--2-2-2--2--2-------------
E:--2----2-2----2----2-2---2----2-2---------------------------------------

Ritornello:
       X2    
G:---------------------------------------------------------------
D:---------------------------------------------------------------
A:-----------0--0-0--3--5/---------------------------------------------
E:--0--0-0----------------------------------------------------------

       X1
G:---------------------------------------------------------------
D:---------------------------------------------------------------
A:----------0-0-0-0-0--5-----------------------------------------------
E:--0--0-0----------------------------------------------------------

       X3 
G:---------------------------------------------------------------
D:---------------------------------------------------------------
A:-----------0--0-0--3--5/---------------------------------------------
E:--0--0-0----------------------------------------------------------

       X1
G:---------------------------------------------------------------
D:---------------------------------------------------------------
A:-----------0-0-0-0-0------------------------------------------------
E:--0--0-0----------------------------------------------------------

       X1
G:---------------------------------------------------------------
D:---------------------------------------------------------------
A:-----------0-0-0-0-0--5----------------------------------------------
E:--0--0-0----------------------------------------------------------



e cosi via ricomincia per suonarla non vi applicate molto alle note precise, il consiglio che vi
d  semplicemente "andare a ritmo"

Con il simbolo / intendo dire che se fate uno slide decrescente, ossia andate verso il 1 tasto
non sarebbe male :-)

Con i simboli X1..X2..X3 intendo dire che il "pentagramma" sottostante questi simboli dovete 
ripeterlo (a suonare) per 2 volte se c' la X2, per 3 volte se c' la X3 e via dicendo!

Se questa tablatura vi convince poco vi prego di farmelo sapere al mio indirizzo e-mail





Comments


Popular Litfiba tabs & chords
Elettrica Bass Tabs
Louisiana Bass Tabs
Tex Chords
El Diablo Tabs
Imparero Tabs
Prendi In Mano I Tuoi Anni Tabs
Regina Di Cuori Tabs
Soldi Tabs
Tex Tabs
Vivere Il Mio Tempo Tabs


Song lyrics



↑ Back to top | Tablatures and chords are parodies/interpretations of the original songs. You may use it for private study, scholarship, research or language learning purposes only
© 2014 AZChords.com Contact us | Privacy policy | DMCA | Add/correct tabs | Request tabs | Top 50 tabs