» » »

La Mia Valigia Bass tabs (ver.1)

Artists:  A B C D E F G H I J K L M N O P Q R S T U V W X Y Z # 

La Mia Valigia Bass tabs (ver.1)

Litfiba
Rating:
0/5 (0 votes)

Tabs too difficult? Try these video lessons and learn fast.
                Guardate anche la mia cover su you tube per apprenderla ancora piu velocemente :


intro
G | ---------------------------------------|
D | ---------------------------------------|
A | 2----2-2--0----0--0--------------------|
E | ---------------------0--0--0-0--0-0----|( X2 )

G | ---------------------------------|
D | ---------------------------------|
A | 2---2—2-2---2-2-0---0-0----------|
E | -------------------------0---0-0-|  ( X2 )

G | ------------------------------------------------------|
D | ------------------------------------------------------|
A | 2-------------0---------------------------------------|
E | -------------------------0----------------------------| ( X2 )

G | ------------------------------------------------------------------|
D | ------------------------------------------------------------------|
A | 2--2-2--222--2--2-2--222-0---0-0-0--000---------------------------|
E | ------------------------------------------0--0-0--000-------------| ( X2 )

G | ---------------------------------------------------------------|
D | ---------------------------------------------------------------|
A | 2----2-2--222---0---0-0-0--000---------------------------------|
E | --------------------------------0--0-0--000--0--0-0--000-------|

G | --------------------------------------------------------|
D | --------------------------------------------------------|
A | 2----2-2--222--5--5-5--5-5-5--0---------0---------------|
E | -----------------------------------0---------0----------|

Chorus
G | ----------------------------------------------------|
D | ----------------------------------------------------|
A | 2----2-2--222--5--5-5--555---0-------0--------------|
E | ---------------------------------0-----0------------| ( X4 )

G | -------------------------------------------------------------|
D | -------------------------------------------------------------|
A | 2----2-2--222--2--2-2--222-5--5-5--555-----------------------|
E | -----------------------------------------0--0-0--000---------|

G | ------------------------------------------------------------|
D | ------------------------------------------------------------|
A | 2----2-2--222--2--2-2--222-0--0-0--000----------------------|
E | -----------------------------------------0--0-0--000--------| (x2)

G | --------------------|
D | --------------------|
A | 0-----------0-------|
E | -------0--------0---|

Chorus
G | ---------------------------------------------------|
D | ---------------------------------------------------|
A | 2----2-2--222--5--5-5--555---0-------0-------------|
E | ------------------------------------------0-----0--| ( X4 )

G | ---------------------------------|
D | ----------------2222222222222222-|
A | 2222222200000000-----------------|
E | ---------------------------------|

G | --------------------------------|
D | ---------------2222222222222222-|
A | 222222225555555-----------------|
E | --------------------------------|

G | --------------------------------------------------------------------------|
D | ---------------------222222222222-7777------------------------------------|
A | 2222222255555555----------------------------0---------0-------------------|
E | ------------------------------------------------------------0---------0---|

Chorus
G | ---------------------------------------------------|
D | ---------------------------------------------------|
A | 2----2-2--222--5--5-5--555---0-------0-------------|
E | ------------------------------------------0-----0--| ( X4 )

G | --------------------------------------------------|
D | --------------------------------------------------|
A | 2--2-2--222--2--2-2--222-5--5-5--555--------------|
E | --------------------------------------0--0-0--000-|

G | --------------------------------------------------|
D | --------------------------------------------------|
A | 2--2-2--222--2--2-2--222-0--0-0--000--------------|
E | --------------------------------------0--0-0--000-|

End
G | ------------------------------|
D | ------------------------------|
A | 2----2-2--222---0--0-0--000---|
E | ----------------------------0-|
            
Tabs too difficult? Try these video lessons and learn fast.




comments powered by Disqus
↑ Back to top | Tablatures and chords are parodies/interpretations of the original songs. You may use it for private study, scholarship, research or language learning purposes only