>
 >
La Mia Valigia

La Mia Valigia Bass Tabs

Litfiba - La Mia Valigia chords, tabs, tablatures, lyrics

Guitar lessons | Add/correct | Request | Top 50 tabs Artists:  A B C D E F G H I J K L M N O P Q R S T U V W X Y Z 0-9

La Mia Valigia Bass Tabs – Litfiba

CD, Sheet music, Poster

Do you like La Mia Valigia? Share with your friends now
Bass Tabs
Guardate anche la mia cover su you tube per apprenderla ancora piu velocemente :


intro
G | ---------------------------------------|
D | ---------------------------------------|
A | 2----2-2--0----0--0--------------------|
E | ---------------------0--0--0-0--0-0----|( X2 )

G | ---------------------------------|
D | ---------------------------------|
A | 2---22-2---2-2-0---0-0----------|
E | -------------------------0---0-0-|  ( X2 )

G | ------------------------------------------------------|
D | ------------------------------------------------------|
A | 2-------------0---------------------------------------|
E | -------------------------0----------------------------| ( X2 )

G | ------------------------------------------------------------------|
D | ------------------------------------------------------------------|
A | 2--2-2--222--2--2-2--222-0---0-0-0--000---------------------------|
E | ------------------------------------------0--0-0--000-------------| ( X2 )

G | ---------------------------------------------------------------|
D | ---------------------------------------------------------------|
A | 2----2-2--222---0---0-0-0--000---------------------------------|
E | --------------------------------0--0-0--000--0--0-0--000-------|

G | --------------------------------------------------------|
D | --------------------------------------------------------|
A | 2----2-2--222--5--5-5--5-5-5--0---------0---------------|
E | -----------------------------------0---------0----------|

Chorus
G | ----------------------------------------------------|
D | ----------------------------------------------------|
A | 2----2-2--222--5--5-5--555---0-------0--------------|
E | ---------------------------------0-----0------------| ( X4 )

G | -------------------------------------------------------------|
D | -------------------------------------------------------------|
A | 2----2-2--222--2--2-2--222-5--5-5--555-----------------------|
E | -----------------------------------------0--0-0--000---------|

G | ------------------------------------------------------------|
D | ------------------------------------------------------------|
A | 2----2-2--222--2--2-2--222-0--0-0--000----------------------|
E | -----------------------------------------0--0-0--000--------| (x2)

G | --------------------|
D | --------------------|
A | 0-----------0-------|
E | -------0--------0---|

Chorus
G | ---------------------------------------------------|
D | ---------------------------------------------------|
A | 2----2-2--222--5--5-5--555---0-------0-------------|
E | ------------------------------------------0-----0--| ( X4 )

G | ---------------------------------|
D | ----------------2222222222222222-|
A | 2222222200000000-----------------|
E | ---------------------------------|

G | --------------------------------|
D | ---------------2222222222222222-|
A | 222222225555555-----------------|
E | --------------------------------|

G | --------------------------------------------------------------------------|
D | ---------------------222222222222-7777------------------------------------|
A | 2222222255555555----------------------------0---------0-------------------|
E | ------------------------------------------------------------0---------0---|

Chorus
G | ---------------------------------------------------|
D | ---------------------------------------------------|
A | 2----2-2--222--5--5-5--555---0-------0-------------|
E | ------------------------------------------0-----0--| ( X4 )

G | --------------------------------------------------|
D | --------------------------------------------------|
A | 2--2-2--222--2--2-2--222-5--5-5--555--------------|
E | --------------------------------------0--0-0--000-|

G | --------------------------------------------------|
D | --------------------------------------------------|
A | 2--2-2--222--2--2-2--222-0--0-0--000--------------|
E | --------------------------------------0--0-0--000-|

End
G | ------------------------------|
D | ------------------------------|
A | 2----2-2--222---0--0-0--000---|
E | ----------------------------0-|





Comments


Popular Litfiba tabs & chords
Fata Morgana Bass Tabs
Goccia A Goccia Chords
Il Mio Corpo Che Cambia Chords
Goccia A Goccia Tabs
Nuovi Rampanti Tabs
Paname Tabs
Prendi In Mano I Tuoi Anni Tabs
Prima Guardia Tabs
Regina Di Cuori Tabs
Vivere Il Mio Tempo Tabs


Song lyrics



↑ Back to top | Tablatures and chords are parodies/interpretations of the original songs. You may use it for private study, scholarship, research or language learning purposes only
© 2014 AZChords.com Contact us | Privacy policy | DMCA | Add/correct tabs | Request tabs | Top 50 tabs