» » »

Lisa Loeb, It's Over Tabs (ver.1)

Artists:  A B C D E F G H I J K L M N O P Q R S T U V W X Y Z # 

It's Over Tabs (ver.1)

Lisa Loeb Tabs
 Rating:
4/5 (4 votes)
It's Over lessons Tabs too difficult? Try these video lessons and learn fast
1
                PROPS GO TO: Jocelyn

Capo up to 5th fret (4th fret on Purple Tape)

There’s obviously more strumming involved than I indicate here. 
I’ve just given the chords as they follow the lyrics – just fill in the strumming like the recording. 
This is a really fun song to play!

|----3-----------0------------------3-----------0----------|
|----3-----------0------------------3-----------0----------|
|----0-----------0------------------0-----------0----------|
|----0-----------2------------------0-----------2----------|
|----x-----------3------------------x-----------3----------|
|----3------------------------------3----------------------|
      Sorry sir, I stole your money. Sorry sir, I feel, but it’s
	
|-----0----0-----0-------0---0-----------|
|-----1----1-----1-------1---1-----------|
|-----2----0-----0-------2---0-----------|
|-----2----0-----0-2h----2---0-----------|
|-----0----3-----3-------0---3-----------|
|----------------------------------------|
    oh, so twisted,     so unreal.

|----3-----------0------------------3-------------0----------|
|----3-----------0------------------3-------------0----------|
|----0-----------0------------------0-------------0----------|
|----0-----------2------------------0-------------2----------|
|----x-----------3------------------x-------------3----------|
|----3------------------------------3------------------------|
      It was what I’d heard of, and what I didn’t have, but I

|--0---------------0---------0--------0---------------0--------0-----|
|--1---------------1---------1--------1---------------1--------1-----|
|--2---------------0---------0--------2---------------0--------0-----|
|--2---------------0---------0-2h-----2---------------0--------0-2h--|
|--0---------------3---------3--------0---------------3--------3-----|
|--------------------------------------------------------------------|
  cannot give what I do not have & I cannot take what I do not have

|----3--------------0--------|
|----3--------------0--------|
|----0--------------0--------|
|----0--------------2--------|
|----x--------------3--------|
|----3-----------------------|
       I can’t take it

|------0-----7-----0-----5-----0------3------0------5----5----|
|------0-----0-----0-----0-----0------0------0------3----3----|
|------0-----0-----0-----0-----0------0------0------0----0----|
|---------------------------------------------------0----4----|
|-------------------------------------------------------------|
|-------------------------------------------------------------|
 Don’t stultify,         don’t hold me high			(repeat)

|----5------------------------------0----------------0--------|
|----0------------------------------1----------------1--------|
|----0------------------------------0----------------0--------|
|----4------------------------------0----------------0-2h-----|
|----4------------------------------3----------------3--------|
|----0--------------------------------------------------------|
 Too many things held precious, too many things held dear

|----5-----------------------0------------------|
|----0-----------------------0------------------|
|----0-----------------------0------------------|
|----0-----------------------2------------------|
|----2-----------------------0------------------|
|-----------------------------------------------|
    That’s what I hate, and that’s what I fear

|-----0-------------------3---------------------|
|-----3-------------------3---------------------|
|-----0-------------------0---------------------|
|-----2-------------------0---------------------|
|-----3-------------------x---------------------|
|-------------------------3---------------------|
 Too much to ask for may leave me feeling lonely

|---------0----------------0------------------0-----0-----0-----|
|---------3----------------0------------------5-----4-----0-----|
|---------2----------------0------------------5-----4-----1-----|
|---------2----------------2------------------5-----4-----2-----|
|---------0----------------2------------------0-----0-----2-----|
|--------------------------0------------------------------0-----|
 But too little leaves me nothing, nothing

|--------0-------------0--------------0-------------|
|--------4-------------2--------------0-------------|
|--------4-------------2--------------1-------------|
|--------4-------------2--------------2-------------|
|--------0-------------0--------------2-------------|
|-------------------------------------0-------------|
 But the drone in your voice and the fly on the wall said,
   “it’s over,    it’s over,     it’s over, it is.”
     And what do I    wish for you    what do I wish?
   It’s over,    it’s over, it is.

|----0------------0-----------0---------------0-------|
|----0------------0-----------0---------------0-------|
|----1------------6-----------4---------------6-------|
|----2------------6-----------4---------------6-------|
|----2------------4-----------2---------------4-------|
|----0------------0-----------0---------------0-------|
 And are we still solemn and  bleeding?
 And are we still swimming to water that was wet?

|----0--------------0---------0-----7----0---5---0---3---0----5---5---|
|----2--------------4---------0-----0----0---0---0---0---0----3---3---|
|----2--------------4---------0-----0----0---0---0---0---0----0---0---|
|----2--------------4-----------------------------------------0---4---|
|----0--------------0-------------------------------------------------|
|---------------------------------------------------------------------|
 You can’t give away certain things that you get.

|----0----7----0----5----0----3----0----5----5----|
|----0----0----0----0----0----0----0----3----3----|
|----0----0----0----0----0----0----0----0----0----|
|---------------------------------------0----4----|
|-------------------------------------------------|
|-------------------------------------------------|

|---------5--------------0----0------5------------------------------0-|
|---------0--------------1----1------0------------------------------0-|
|---------0--------------0----0------0------------------------------0-|
|---------4--------------0----0-2h---0------------------------------2-|
|---------4--------------3----3------2------------------------------0-|
|---------0--------------------------0--------------------------------|

|------0----------------3-------------------0--------------|
|------3----------------3-------------------3--------------|
|------0----------------0-------------------2--------------|
|------2----------------0-------------------2--------------|
|------3----------------x-------------------0--------------|
|-----------------------3----------------------------------|
There has to be more on one hand. Keep your head above water 

|------0-----------------0------0------0--------|
|------0-----------------5------4------0--------|
|------0-----------------5------4------1--------|
|------2-----------------5------4------2--------|
|------2-----------------0------0------2--------|
|------0-------------------------------0--------|
On the other, the other.

|--------0-------------0--------------0-------------|
|--------4-------------2--------------0-------------|
|--------4-------------2--------------1-------------|
|--------4-------------2--------------2-------------|
|--------0-------------0--------------2-------------|
|-------------------------------------0-------------|
 But the drone in your voice and the fly on the wall said,
   “it’s over,    it’s over,     it’s over, it is.”
     And what do I    wish for you    what do I wish?
   It’s over,    it’s over, it is.

|----0------------0-----------0---------------0-------|
|----0------------0-----------0---------------0-------|
|----1------------6-----------4---------------6-------|
|----2------------6-----------4---------------6-------|
|----2------------4-----------2---------------4-------|
|----0------------0-----------0---------------0-------|
 And are we all     still     solemn and     bleeding?
 And are we still swimming to water that was already wet?

|---0-----------0-----------------0---7---0---5---0---3---0---5---5---|
|---2-----------4-----------------0---0---0---0---0---0---0---3---3---|
|---2-----------4-----------------0---0---0---0---0---0---0---0---0---|
|---2-----------4---------------------------------------------0---4---|
|---0-----------0-----------------------------------------------------|
|---------------------------------------------------------------------|
     I can’t forgive, but I won’t forget

|----0--------7----0---5-----0---------3----0------|
|----0--------0----0---0-----0---------0----0------|
|----0--------0----0---0-----0---------0----0------|
|--------------------------------------------------|
|--------------------------------------------------|
|--------------------------------------------------|
I’ll wish for you,      I’ll plead and I’ll steal, oh

|----5----------5-----------------------|
|----3----------3-----------------------|
|----0----------0-----------------------|
|----0----------4-----------------------|
|---------------------------------------|
|---------------------------------------|
        Hold me precious, hold me dear.

|----0--------7----0---5-----0--------3----0------|
|----0--------0----0---0-----0--------0----0------|
|----0--------0----0---0-----0--------0----0------|
|-------------------------------------------------|
|-------------------------------------------------|
|-------------------------------------------------|
I’ll wish for you,      I’ll sing and I’ll feel

|------5------5---------0----7----0----5----0----3----0----5---5---|
|------3------3---------0----0----0----0----0----0----0----3---3---|
|------0------0---------0----0----0----0----0----0----0----0---0---|
|------0------4--------------------------------------------0---4---|
|------------------------------------------------------------------|
|------------------------------------------------------------------|
Don’t stultify.   Don’t hold me high.

|------------------5---------------3------------------5----|
|------------------0------------3---------------------0----|
|--------------0------------0---------------------0--------|
|----------4----------------------------------3------------|
|------4----------------3-----------------2----------------|
|----------------------------------------------------------|
Like a gothic staple, a last goodbye. One way to float

|--------------------------3-----------0----------0---------0-----|
|--------------------------3-----------5----------4---------0-----|
|-----------0----------0---------------5----------4---------0-----|
|-------3-----------3------------------5----------4---------2-----|
|---3------------3---------------------0----------0---------2-----|
|-----------------------------------------------------------0-----|
 Is if you die.			And it’s over, it’s over, it’s over.

|------0---------0-----------0----------0----------0-------0------|
|------5---------4-----------0----------5----------4-------0------|
|------5---------4-----------0----------5----------4-------0------|
|------5---------4-----------2----------5----------4-------2------|
|------0---------0-----------2----------0----------0-------2------|
|----------------------------0-----------------------------0------|
It’s over, it’s over, it’s over, it’s over, it’s over.

|-------0------0------0--------|
|-------5------4------0--------|
|-------5------4------1--------|
|-------5------4------2--------|
|-------0------0------2--------|
|---------------------0--------|
            
Submit corrections

comments powered by Disqus
↑ Back to top | Lisa Loeb Tabs for It's Over. Lyrics for acoustic guitar and electric guitar. 1 Tablatures and chords are parodies/interpretations of the original songs. You may use it for private study, scholarship, research or language learning purposes only