» » »

Liquido, Play Some Rock Tabs (ver.1)

Artists:  A B C D E F G H I J K L M N O P Q R S T U V W X Y Z # 

Play Some Rock Tabs (ver.1)

Liquido Tabs
 Rating:
4/5 (4 votes)
Play Some Rock lessons Tabs too difficult? Try these video lessons and learn fast
                -----------------------------------------------------------------------------
-----------------------------------------------------------------------------

Tuning: Standard

Piano Part
e|-5--5---5-8-5---5--5---5-8-5-------------------------------------------|
B|------8-------8------8--------3--3-3-3--5--5-6-8-----------------------|
G|-----------------------------------------------------------------------|
D|-----------------------------------------------------------------------|
A|-----------------------------------------------------------------------|
E|-----------------------------------------------------------------------|


And this is what comes in the middle of the verse:
e|-----------------------------------------------------------------------|
B|-3-1---1-----3-1---1---------------------------------------------------|
G|-----3---3-2-----3---3-2-0---0-----0---x2------------------------------|
D|-------------------------------2-3-------------------------------------|
A|-----------------------------------------------------------------------|
E|-----------------------------------------------------------------------|
            
Submit corrections

comments powered by Disqus
↑ Back to top | Liquido Tabs for Play Some Rock. Lyrics for acoustic guitar and electric guitar. Tablatures and chords are parodies/interpretations of the original songs. You may use it for private study, scholarship, research or language learning purposes only