» » »

Lioneye Daniel, Lonely Road Tabs (ver.1)

Artists:  A B C D E F G H I J K L M N O P Q R S T U V W X Y Z # 

Lonely Road Tabs (ver.1)

Lioneye Daniel Tabs
Rating:
0/5 (0 votes)
Lonely Road lessons Tabs too difficult? Try these video lessons and learn fast
                The King Of Rock'n Roll

Intro                                     
e|-----------------------------|
B|-----------------------------|
G|---------------------3-----2-|
D|-------------------2-----1---|
A|--------5---7-7--3-----2-----|
E|-0--5-7---0------------------|

Main Riff
                   C7 B7
e|--------------------2-|
B|-----------------1--0-|
G|-----------------3--2-|  
D|-----------------2--1-|
A|--------5---7-7--3--2-|
E|-0--5-7---0-----------|

Verse
e|-------------|
B|-------------|
G|-----3-----2-|
D|---2-----1---|
A|-3-----2-----|
E|-------------|
   
Pre-chorus
       C7          B7
e|-------------2--2--2--2-|
B|-1--1--1--1--0--0--0--0-|
G|-3--3--3--3--2--2--2--2-|
D|-2--2--2--2--1--1--1--1-|
A|-3--3--3--3--2--2--2--2-|
E|------------------------|

Chorus    
                            C7 B7                   
e|----------------------|  |---2-|
B|----------------------|  |-1-0-|
G|----------------------|x3|-3-2-|
D|----------------------|  |-2-1-|
A|-2-2--5-5--7-7--7-7-5-|  |-3-2-|
E|-0-0--3-3--5-5--5-5-3-|  |-0-0-|

Song Structure:
Intro
Main Riff x4 
Verse x3
Pre-chorus
Chorus 
Main Riff x4
Verse x3
Pre-chorus
Chorus
Solo (don't know it yet, but hopefully I will soon)
Chorus
Main Riff x4
            
Submit corrections

comments powered by Disqus
↑ Back to top | Lioneye Daniel Tabs for Lonely Road. Lyrics for acoustic guitar and electric guitar. Tablatures and chords are parodies/interpretations of the original songs. You may use it for private study, scholarship, research or language learning purposes only