» » »

Lioneye Daniel, Eldorado Baby Tabs (ver.1)

Artists:  A B C D E F G H I J K L M N O P Q R S T U V W X Y Z # 

Eldorado Baby Tabs (ver.1)

Lioneye Daniel Tabs
Rating:
0/5 (0 votes)
Eldorado Baby lessons Tabs too difficult? Try these video lessons and learn fast
                The King Of Rock'n Roll

e|-0\0-0-0-0----------------------|    
B|-3\5-5-3-0-2-0------------------|
G|--------------------------------| x2  
D|--------------------------------|
A|----------------2-2-2-2-2-2-2-2-|
E|----------------0-0-3-0-0-0-3-0-|

e|-0\0-0-0-0----------------------|   
B|-3\5-5-3-0-2-0------------------|  
G|--------------------------------|
D|----------------2-2-2-2-2-2-2-2-|
A|----------------0-0-3-0-0-0-3-0-|
E|--------------------------------|

e|-0\0-0-0-0----------------------|    
B|-3\5-5-3-0-2-0------------------|
G|--------------------------------|  
D|--------------------------------|
A|----------------2-2-2-2-2-2-2-2-|
E|----------------0-0-3-0-0-0-3-0-|

e|-0\0-0-0-0----------------------|  
B|-3\5-5-3-0-2-0------------------|
G|--------------------------------| 
D|----------------4-4-4-4-4-4-4-4-| 
A|----------------2-2-2-2-2-2-2-2-|
E|--------------------------------|

e|-0\0-0-0-0----------------------|    
B|-3\5-5-3-0-2-0------------------|
G|--------------------------------|  
D|--------------------------------|  
A|----------------2-2-2-2-2-2-2-2-|
E|----------------0-0-3-0-0-0-3-0-|

Just repeat this whole thing 9 times (I think) and that's the whole song.
            

comments powered by Disqus
↑ Back to top | Lioneye Daniel Tabs for Eldorado Baby. Lyrics for acoustic guitar and electric guitar. Tablatures and chords are parodies/interpretations of the original songs. You may use it for private study, scholarship, research or language learning purposes only