» » »

With You Standard Tuning Tabs (ver.1)

Artists:  A B C D E F G H I J K L M N O P Q R S T U V W X Y Z # 

With You Standard Tuning Tabs (ver.1)

Linkin Park
Rating:
0/5 (0 votes)

Hard to play? Try these video lessons and learn fast.
                Aong:   With You
Tuning: Standard

Pre-Chorus:
D--9-99-10--9-999
A--9-99-10--9-999
E--7-77-8---7-777
   * **     * ***
Chorus:
D--2-----9-----5------
A--2-----9-----5-----5
E--0-----7-----3-----5

During the verse there is no real guitar bit but i
find it good practice to improvise with these notes:
E----15,14,12,10,9,7,5,3,2.


 RIFF  ALL HARMONICS IN THIS PART 

 E|--------------12----------12-----------|
 B|---------7----------12----------12-----|
 G|----5----------------------------------|
 D|---------------------------------------|
 A|---------------------------------------|
 E|---------------------------------------|

 E|---------------------------------------|
 B|----7--------------7-------------------|
 G|---------7--------------7--------------|
 D|--------------7------------------------|
 A|---------------------------------------|
 E|---------------------------------------|
            
Hard to play? Try these video lessons and learn fast. | Correct




comments powered by Disqus
↑ Back to top | Tablatures and chords are parodies/interpretations of the original songs. You may use it for private study, scholarship, research or language learning purposes only