» » »

Linkin Park, With You 6strings Tabs (ver.1)

Artists:  A B C D E F G H I J K L M N O P Q R S T U V W X Y Z # 

With You 6strings Tabs (ver.1)

Linkin Park Tabs
 Rating:
4/5 (4 votes)
With You 6strings lessons Tabs too difficult? Try these video lessons and learn fast
1
                linkin park
03-With you-3:23 from hybrid theory
tuning_drop Db-(Db, Ab, db, Gb, Bb, eB)

Note:brad use a 7-strings gtr ibanez rg7620 but i tab it to a 6-strings gtr
sounds close

intro/pre-dist
|--------------------------------------|
|--------------------------------------|
|--------------------------------------|
|-0--0-0-1---0-0---0---0-0-0-------|
|-0--0-0-1---0-0---0---0-0-0-------|
|-0--0-0-1---0-0---0---0-0-0--*3--|
pm...... pm.............

intro2/Chorus/bridge-dist
|----------------------------|
|----------------------------|
|--7-----7----10-----5-----|
|--5-----7-----8-----3-----|
|--5-----5-----8-----3-----|
|--5-----0-----8-----3-----|


Verse- Clean (when played live brad play it with dist) 
|--------------------------------------| 
|----7*----12*-----12*---------7*------| 
|5*-------------------12*--------------|
|------5*------5*------------------5*--| harmonics
|--------------------------5*----------|
|--------------------------------------|

lyric

intro
intro2

verse
I woke up in a dream today
To the cold of the static and put my cold feet on the floor
Forgot all about yesterday
Remembering I'm pretending to be were I'm not anymore
A little taste of hypocrisy 
And I'm left in the awake of the mistake slow to react
Even though you're so close to me
You're still so distant and I can't bring you back

pre
It's true the way I feel, was promised by your face
The sound of your voice painted on my memories
Even if you're not with me, I'm with you…

Chorus
You now I see keeping everything inside
With you, you now I see even when I close my eyes

verse
I hit you and you hit me back
We fall to the floor the rest of the day stands still
Fine line between this and that
When the things go wrong I pretend that the past isn't real
Now I'm trapped in this memory
And I'm left in the awake of the mistake slow to react
Even thought you're so close to me 
You're still so distant and I can't bring you back

pre

Chorus
With You…
Chorus

bridge
No, no mater how far we've come, I can't wait to see tomorrow
No mater how far we've come, I can't wait to see tomorrow
With you…

Chorus

With You…
            
Submit corrections

comments powered by Disqus
↑ Back to top | Linkin Park Tabs for With You 6strings. Lyrics for acoustic guitar and electric guitar. 1 Tablatures and chords are parodies/interpretations of the original songs. You may use it for private study, scholarship, research or language learning purposes only