» » »

Linkin Park, Somewhere I Belong Good Tabs (ver.1)

Artists:  A B C D E F G H I J K L M N O P Q R S T U V W X Y Z # 

Somewhere I Belong Good Tabs (ver.1)

Linkin Park Tabs
 Rating:
4/5 (4 votes)
Somewhere I Belong Good lessons Tabs too difficult? Try these video lessons and learn fast
1
                Coooool song so i thought i'd add my 2 cents in



--------10--------------------------------------------------------------------
---11-------------------------------------------------------------------------
-9----9---9----------------this-intro-is-100%correct---------------------------------------------------------------------------------------------------------------

------------------------------------------------------|-----------------|-----
------------------------------------------------------|-----------------|-----
-88888888-99999999-11111111-99999999-88888888-99999999|66666666-44444444|-----
-xxxxxxxx-xxxxxxxx-xxxxxxxx-xxxxxxxx-xxxxxxxx-xxxxxxxx|xxxxxxxx-xxxxxxx-|-----
-66666666-77777777-99999999-77777777-66666666-77777777|44444444-22222222|-----
------------------------------------------------------|-----------------|-----
                          ^Chourus and post intro^      ending of chourus^    

---------------------------------------|--------------------------------------
---------------------------------------|--------------------------------------
-----9-----9-----9--------------5/6\5--|-----9-----11----9-----5/6\5----------
-5-5-x-6-6-x-7-7-x-2-2----------x/x\x--|-5-5-x-6-6-x-7-7-x-2-2-x/x\x----------
-5-5-7-6-6-7-7-7-7-2-2----------3/4\3--|-5-5-7-6-6-9-7-7-7-5-2-3/4\3----------
-5-5---6-6---7-7---2-2-----------------|-5-5---6-6---7-7---2-2----------------
        2x              ^Bridge^ I fixed it :)         ending
            
Submit corrections

comments powered by Disqus
↑ Back to top | Linkin Park Tabs for Somewhere I Belong Good. Lyrics for acoustic guitar and electric guitar. 1 Tablatures and chords are parodies/interpretations of the original songs. You may use it for private study, scholarship, research or language learning purposes only