» » »

Linkin Park, Somewhere I Belong - Bb Tuning Tabs (ver.2)

Artists:  A B C D E F G H I J K L M N O P Q R S T U V W X Y Z # 

Somewhere I Belong - Bb Tuning Tabs (ver.2)

Linkin Park Tabs
Rating:
0/5 (0 votes)
Somewhere I Belong - Bb Tuning lessons Tabs too difficult? Try these video lessons and learn fast
                Tuning: Both use 6 strings tuned as if they were a 7-string minus the high E
Bb Eb Ab Db Gb Bb    a.k.a.
A# D# G# C# F# A#

= Created 4/6/2003 =   

::Hey, i got the correct tuning out of guitarworld, and I got back from
Florida, so i finally got the tab out.  Enjoy

::Index times are relative to the Mpeg music video on the net, sorry about
that, didn't realize it till it was done, not that anyone actually uses
the indexs or anything :)

= UPDATE 4/10/2003=

::Realized Mike is playing a 6 string also, so i took out the extra string
on all his parts, duh :P Sorry bout that one :)

= TAB =   

  [Intro 00:12 - 00:24]           [00:20 - 00:24]
-|BRAD-----10-----|-		-|MIKE|-
-|---11--------11-|-		-|----|-
-|-9-----9--------|-		-|----|-
-|----------------|-		-|-2--|-
-|----------------|-		-|----|-
-|----------------|-		-|----|-
  Play 8 times                     Volume knob fade, distorted.
  Clean tone			   Fade this in at the beginning of brad's
				   7th time through his little pattern.
				   
  [Intro/Chorus 00:24 - 00:29]
-|BRAD---------------------------------------------------------------------|-
-|-8-8-8-8-8-8-8-8-9-9-9-9-9-9-9-9-11-11-11-11-11-11-11-11-9-9-9-9-9-9-9-9-|-
-|-x-x-x-x-x-x-x-x-x-x-x-x-x-x-x-x-x--x--x--x--x--x--x--x--x-x-x-x-x-x-x-x-|-
-|-6-6-6-6-6-6-6-6-7-7-7-7-7-7-7-7-9--9--9--9--9--9--9--9--7-7-7-7-7-7-7-7-|-
-|-------------------------------------------------------------------------|-
-|-------------------------------------------------------------------------|-
 |									   |
 |									   |
-|MIKE---------------------------------------------------------------------|-
-|-------------------------------------------------------------------------|-
-|---------------------------------5--5--5--5--5--5--5--5--2-2-2-2-2-2-2-2-|-
-|-2-2-2-2-2-2-2-2-5-5-5-5-5-5-5-5-5--5--5--5--5--5--5--5--2-2-2-2-2-2-2-2-|-
-|-2-2-2-2-2-2-2-2-5-5-5-5-5-5-5-5-3--3--3--3--3--3--3--3--0-0-0-0-0-0-0-0-|-
-|-0-0-0-0-0-0-0-0-3-3-3-3-3-3-3-3-----------------------------------------|-
   Play once
   Both using distortion now


  [Intro/Chorus 00:29 - 00:41]
-|BRAD---------------------------------------------------------------------|-
-|-8-8-8-8-8-8-8-8-9-9-9-9-9-9-9-9-6-6-6-6-6-6-6-6-4-4-4-4-4-4-4-4---------|-
-|-x-x-x-x-x-x-x-x-x-x-x-x-x-x-x-x-x-x-x-x-x-x-x-x-x-x-x-x-x-x-x-x---------|-
-|-6-6-6-6-6-6-6-6-7-7-7-7-7-7-7-7-4-4-4-4-4-4-4-4-2-2-2-2-2-2-2-2---------|-
-|-------------------------------------------------------------------------|-
-|-------------------------------------------------------------------------|-
 |									   |
 |					Let this chord ring--------V	   |
-|Mike---------------------------------------------------------------------|-
-|-----------------------------------------------------------------4-------|-
-|---------------------------------7-7-7-7-7-7-7-7-2-2-2-2-2-2-2-2-x-------|-
-|-2-2-2-2-2-2-2-2-5-5-5-5-5-5-5-5-7-7-7-7-7-7-7-7-2-2-2-2-2-2-2-2-2-------|-
-|-2-2-2-2-2-2-2-2-5-5-5-5-5-5-5-5-5-5-5-5-5-5-5-5-0-0-0-0-0-0-0-0---------|-
-|-0-0-0-0-0-0-0-0-3-3-3-3-3-3-3-3-----------------------------------------|-
   Play once


  [Verse 00:41 - 01:05]		  [01:03 - 01:05]
-|BRAD-----10-----|-		-|MIKE---------------------|-
-|---11--------11-|-		-|-------------------------|-
-|-9-----9--------|-		-|-------------------------|-
-|----------------|-		-|-------------------------|-
-|----------------|-		-|-------------------------|-
-|----------------|-		-|-*5-*5-*5-*5-*5-*5-*5-*5-|-
   Play 16 times		  Play once with distortion
   Clean tone 			  * indicates natural harmonic
				  

  [Chorus 01:05 - 01:23]
-|BRAD---------------------------------------------------------------------|-
-|-8-8-8-8-8-8-8-8-9-9-9-9-9-9-9-9-11-11-11-11-11-11-11-11-9-9-9-9-9-9-9-9-|-
-|-x-x-x-x-x-x-x-x-x-x-x-x-x-x-x-x-x--x--x--x--x--x--x--x--x-x-x-x-x-x-x-x-|-
-|-6-6-6-6-6-6-6-6-7-7-7-7-7-7-7-7-9--9--9--9--9--9--9--9--7-7-7-7-7-7-7-7-|-
-|-------------------------------------------------------------------------|-
-|-------------------------------------------------------------------------|-
 |									   |
 |									   |
-|MIKE---------------------------------------------------------------------|-
-|-------------------------------------------------------------------------|-
-|---------------------------------5--5--5--5--5--5--5--5--2-2-2-2-2-2-2-2-|-
-|-2-2-2-2-2-2-2-2-5-5-5-5-5-5-5-5-5--5--5--5--5--5--5--5--2-2-2-2-2-2-2-2-|-
-|-2-2-2-2-2-2-2-2-5-5-5-5-5-5-5-5-3--3--3--3--3--3--3--3--0-0-0-0-0-0-0-0-|-
-|-0-0-0-0-0-0-0-0-3-3-3-3-3-3-3-3-----------------------------------------|-
   Play 3 times
   Both using distortion now


  [Chorus Con't 01:23 - 01:29]
-|BRAD---------------------------------------------------------------------|-
-|-8-8-8-8-8-8-8-8-9-9-9-9-9-9-9-9-6-6-6-6-6-6-6-6-4-4-4-4-4-4-4-4---------|-
-|-x-x-x-x-x-x-x-x-x-x-x-x-x-x-x-x-x-x-x-x-x-x-x-x-x-x-x-x-x-x-x-x---------|-
-|-6-6-6-6-6-6-6-6-7-7-7-7-7-7-7-7-4-4-4-4-4-4-4-4-2-2-2-2-2-2-2-2---------|-
-|-------------------------------------------------------------------------|-
-|-------------------------------------------------------------------------|-
 |									   |
 |					Let this chord ring--------V	   |
-|Mike---------------------------------------------------------------------|-
-|-----------------------------------------------------------------4-------|-
-|---------------------------------7-7-7-7-7-7-7-7-2-2-2-2-2-2-2-2-x-------|-
-|-2-2-2-2-2-2-2-2-5-5-5-5-5-5-5-5-7-7-7-7-7-7-7-7-2-2-2-2-2-2-2-2-2-------|-
-|-2-2-2-2-2-2-2-2-5-5-5-5-5-5-5-5-5-5-5-5-5-5-5-5-0-0-0-0-0-0-0-0---------|-
-|-0-0-0-0-0-0-0-0-3-3-3-3-3-3-3-3-----------------------------------------|-
   Play once

  
  [Verse 01:29 - 01:52]           [01:52]
-|BRAD-----10-----|-		-|MIKE---------|-
-|---11--------11-|-		-|-------------|-
-|-9-----9--------|-		-|-------------|-
-|----------------|-		-|-------------|-
-|----------------|-		-|-------------|-
-|----------------|-		-|-*5-*5-*5-*5-|-
   Play 16 times		  Play once with distortion
   Clean tone 			  * indicates natural harmonic
				  

  [Chorus 01:52 - 02:10]
-|BRAD---------------------------------------------------------------------|-
-|-8-8-8-8-8-8-8-8-9-9-9-9-9-9-9-9-11-11-11-11-11-11-11-11-9-9-9-9-9-9-9-9-|-
-|-x-x-x-x-x-x-x-x-x-x-x-x-x-x-x-x-x--x--x--x--x--x--x--x--x-x-x-x-x-x-x-x-|-
-|-6-6-6-6-6-6-6-6-7-7-7-7-7-7-7-7-9--9--9--9--9--9--9--9--7-7-7-7-7-7-7-7-|-
-|-------------------------------------------------------------------------|-
-|-------------------------------------------------------------------------|-
 |									   |
 |									   |
-|MIKE---------------------------------------------------------------------|-
-|-------------------------------------------------------------------------|-
-|---------------------------------5--5--5--5--5--5--5--5--2-2-2-2-2-2-2-2-|-
-|-2-2-2-2-2-2-2-2-5-5-5-5-5-5-5-5-5--5--5--5--5--5--5--5--2-2-2-2-2-2-2-2-|-
-|-2-2-2-2-2-2-2-2-5-5-5-5-5-5-5-5-3--3--3--3--3--3--3--3--0-0-0-0-0-0-0-0-|-
-|-0-0-0-0-0-0-0-0-3-3-3-3-3-3-3-3-----------------------------------------|-
   Play 3 times
   Both using distortion now


  [Chorus Con't 02:10 - 02:16] 
-|BRAD---------------------------------------------------------------------|-
-|-8-8-8-8-8-8-8-8-9-9-9-9-9-9-9-9-6-6-6-6-6-6-6-6-4-4-4-4-4-4-4-4---------|-
-|-x-x-x-x-x-x-x-x-x-x-x-x-x-x-x-x-x-x-x-x-x-x-x-x-x-x-x-x-x-x-x-x---------|-
-|-6-6-6-6-6-6-6-6-7-7-7-7-7-7-7-7-4-4-4-4-4-4-4-4-2-2-2-2-2-2-2-2---------|-
-|-------------------------------------------------------------------------|-
-|-------------------------------------------------------------------------|-
 |									   |
 |					Let this chord ring--------V	   |
-|Mike---------------------------------------------------------------------|-
-|-----------------------------------------------------------------4-------|-
-|---------------------------------7-7-7-7-7-7-7-7-2-2-2-2-2-2-2-2-x-------|-
-|-2-2-2-2-2-2-2-2-5-5-5-5-5-5-5-5-7-7-7-7-7-7-7-7-2-2-2-2-2-2-2-2-2-------|-
-|-2-2-2-2-2-2-2-2-5-5-5-5-5-5-5-5-5-5-5-5-5-5-5-5-0-0-0-0-0-0-0-0---------|-
-|-0-0-0-0-0-0-0-0-3-3-3-3-3-3-3-3-----------------------------------------|-
   Play once


  [Bridge 02:16 - 02:27]
-|BRAD-&-MIKE-----------------------------------------|-
-|-------11-11--------11-11--------11-11--------6/7\6-|-
-|-------x--x---5--5--x--x---7--7--x--x---2--2--x/x\x-|-
-|-2--2--9--9---5--5--9--9---7--7--9--9---2--2--4/5\4-|-
-|-2--2---------3--3---------5--5---------0--0--------|-
-|-0--0-----------------------------------------------|-
  Play twice.


  [Bridge Con't 02:27 - 02:34]
-|BRAD-&-MIKE-----------------------------------------|-
-|-------11-11--------14-14--------14--14-------6/7\6-|-
-|-------x--x---5--5--x--x---7--7--x---x--2--2--x/x\x-|-
-|-2--2--9--9---5--5--12-12--7--7--12--12-2--2--4/5\4-|-
-|-2--2---------3--3---------5--5---------0--0--------|-
-|-0--0-----------------------------------------------|-
   Play once


  [Bridge Con't 02:34 - 02:40] let this chord ring V
-|BRAD-&-MIKE-----------------------------------------|-
-|-------11-11--------11-11--------9-----------7-/-4--|-
-|-------x--x---5--5--x--x---7--7--x------2--2-x-/-x--|-
-|-2--2--9--9---5--5--9--9---7--7--7------2--2-5-/-2--|-
-|-2--2---------3--3---------5--5---------0--0--------|-
-|-0--0-----------------------------------------------|-
   Play once

  [Bridge Con't 02:44 - 02:46]
-|BRAD-&-MIKE--------------|-
-|-------------------------|-
-|-------------------------|-
-|-------------------------|-
-|-------------------------|-
-|-*5-*5-*5-*5-*5-*5-*5-*5-|-
   Play once with distortion
  * indicates natural harmonic

  [Chorus 02:46 - 03:15]
-|BRAD---------------------------------------------------------------------|-
-|-8-8-8-8-8-8-8-8-9-9-9-9-9-9-9-9-11-11-11-11-11-11-11-11-9-9-9-9-9-9-9-9-|-
-|-x-x-x-x-x-x-x-x-x-x-x-x-x-x-x-x-x--x--x--x--x--x--x--x--x-x-x-x-x-x-x-x-|-
-|-6-6-6-6-6-6-6-6-7-7-7-7-7-7-7-7-9--9--9--9--9--9--9--9--7-7-7-7-7-7-7-7-|-
-|-------------------------------------------------------------------------|-
-|-------------------------------------------------------------------------|-
 |									   |
 |									   |
-|MIKE---------------------------------------------------------------------|-
-|-------------------------------------------------------------------------|-
-|---------------------------------5--5--5--5--5--5--5--5--2-2-2-2-2-2-2-2-|-
-|-2-2-2-2-2-2-2-2-5-5-5-5-5-5-5-5-5--5--5--5--5--5--5--5--2-2-2-2-2-2-2-2-|-
-|-2-2-2-2-2-2-2-2-5-5-5-5-5-5-5-5-3--3--3--3--3--3--3--3--0-0-0-0-0-0-0-0-|-
-|-0-0-0-0-0-0-0-0-3-3-3-3-3-3-3-3-----------------------------------------|-
   Play 5 times
   

  [Chorus Con't 03:15 - 03:21]
-|BRAD---------------------------------------------------------------------|-
-|-8-8-8-8-8-8-8-8-9-9-9-9-9-9-9-9-6-6-6-6-6-6-6-6-4-4-4-4-4-4-4-4---------|-
-|-x-x-x-x-x-x-x-x-x-x-x-x-x-x-x-x-x-x-x-x-x-x-x-x-x-x-x-x-x-x-x-x---------|-
-|-6-6-6-6-6-6-6-6-7-7-7-7-7-7-7-7-4-4-4-4-4-4-4-4-2-2-2-2-2-2-2-2---------|-
-|-------------------------------------------------------------------------|-
-|-------------------------------------------------------------------------|-
 |									   |
 |					Let this chord ring--------V	   |
-|Mike---------------------------------------------------------------------|-
-|-----------------------------------------------------------------4-------|-
-|---------------------------------7-7-7-7-7-7-7-7-2-2-2-2-2-2-2-2-x-------|-
-|-2-2-2-2-2-2-2-2-5-5-5-5-5-5-5-5-7-7-7-7-7-7-7-7-2-2-2-2-2-2-2-2-2-------|-
-|-2-2-2-2-2-2-2-2-5-5-5-5-5-5-5-5-5-5-5-5-5-5-5-5-0-0-0-0-0-0-0-0---------|-
-|-0-0-0-0-0-0-0-0-3-3-3-3-3-3-3-3-----------------------------------------|-
   Play once


  [Outro 03:21 - 03:30]
-|BRAD-&-MIKE------------------------------|-
-|-----------------------------------------|-
-|-----------------------------------------|-
-|-2-2-2-2-2-2-2-2-2-2-2-2-----------------|-
-|-2-2-2-2-2-2-2-2-2-2-2-2-----------------|-
-|-0-0-0-0-0-0-0-0-0-0-0-0--*5--*5--*5--*5-|-
   Play 3 times


  [Outro Con't 03:30 - 03:32]
-|BRAD-&-MIKE--------------|-
-|-------------------------|-
-|-------------------------|-
-|-2-2-2-2-2-2-2-2-2-2-2-2-|-
-|-2-2-2-2-2-2-2-2-2-2-2-2-|-
-|-0-0-0-0-0-0-0-0-0-0-0-0-|-
   Play once


END [03:32]
            

comments powered by Disqus
↑ Back to top | Linkin Park Tabs for Somewhere I Belong - Bb Tuning. Lyrics for acoustic guitar and electric guitar. Tablatures and chords are parodies/interpretations of the original songs. You may use it for private study, scholarship, research or language learning purposes only