» » »

Linkin Park, Some Where I Belong Tabs (ver.4)

Artists:  A B C D E F G H I J K L M N O P Q R S T U V W X Y Z # 

Some Where I Belong Tabs (ver.4)

Linkin Park Tabs
 Rating:
4/5 (4 votes)
Some Where I Belong lessons Tabs too difficult? Try these video lessons and learn fast
1
                HEY ALL, i got tired of stupid people submiting stupid tabs so i decided to tab it myself
first off tune your guitar to half step down, Drop-D.
(Low to High) Db Ab Db Gb Bb Eb
   a.k.a.     C# G# C# F# A# D#


intro

Gtr 2 (clean)
(Rhy. Fig. 2)                                                                       |---------5-----------5----|
|--5-7--7---7--5-7--7---7--|
|--------------------------| 4x
|--------------------------|
|--------------------------|
|--------------------------|

Chorus (Rhy. Fig. 3)


part 1                           2.———————–    3.———————–                                                                                                                                                                          |---------------------|--------------------|---------------------|
|---------------------|--------------------|---------------------|
|---------------------|--------------------|---------------------|
|-6-6-6-6-6-7-7-7-7-7-|9-9-9-9-9--7-7-7-7-7|-4-4-4-4-4-2-2-2-2-2-|
|-6-6-6-6-6-7-7-7-7-7-|9-9-9-9-9--7-7-7-7-7|-4-4-4-4-4-2-2-2-2-2-|
|-4-4-4-4-4-5-5-5-5-5-|7-7-7-7-7--5-5-5-5-5|-2-2-2-2-2-0-0-0-0-0-|
     play in this order: part one to part two .....then.... part one to part three


then play intro verse (Rhy. Fig. 2)   16x

Pre-Chorus
Gtr 3 (Fill 2                                                                       |---------|
|---------|
|-[44444)-|   play all natural harmonics  
|-[44444)-|  
|-[44444)-|
   

then play Chorus (Rhy. Fig. 3)   2x

then play intro verse (Rhy. Fig. 2)   16x

then play Pre-Chorus Gtr 3 (Fill 1) 1x

then play Chorus (Rhy. Fig. 3)   2x

Bridge
Gtr 3 and Gtr 4 (Rhy. Fig. 4)
|------------------------------------------------------------|
|------------------------------------------------------------|
|--------11-11----------11-11----------11-11----------6/7\6--| 2x
|--5---5-x--x-----7---7-x--x-----9---9-x--x-----2---2-x------|
|--5---5-9--9-----7---7-9--9-----9---9-9--9-----2---2-4/5\4--|
|--5---5----------7---7----------9---9----------2---2--------|
				
|------------------------------------------------------------|
|------------------------------------------------------------|
|--------11-11----------14-14----------11-11----------6/7\6--| 
|--5---5-x--x-----7---7-x--x-----9---9-x--x-----2---2-x------|
|--5---5-9--9-----7---7-12--12---9---9-9--9-----2---2-4/5\4--|
|--5---5----------7---7----------9---9----------2---2--------|


then play Pre-Chorus Gtr 3 (Fill 1) 1x

then play Chorus (Rhy. Fig. 3)   4x

Outro
Gtr 3                      3x
|----------------------------|---------------|||
|o--------------------------o|---------------|||
|----------------------------|---------------|||
|--4-4-4-4-4-4-4--[4-4-4-4]--|-4-4-4-4-4-4-4-|||
|o-2-2-2-2-2-2-2--[4-4-4-4]-o|-2-2-2-2-2-2-2-|||
|--4-4-4-4-4-4-4--[4-4-4-4]--|-4-4-4-4-4-4-4-|||
            
Submit corrections

comments powered by Disqus
↑ Back to top | Linkin Park Tabs for Some Where I Belong. Lyrics for acoustic guitar and electric guitar. 1 Tablatures and chords are parodies/interpretations of the original songs. You may use it for private study, scholarship, research or language learning purposes only