» » »

Somewheree I Belong Tabs (ver.1)

Artists:  A B C D E F G H I J K L M N O P Q R S T U V W X Y Z # 

Somewheree I Belong Tabs (ver.1)

Linkin Park
Rating:
0/5 (0 votes)

Hard to play? Try these video lessons and learn fast.
                Somewhere I Belong


This is the first single off of Linkin Park's
second album, Meteora. The song starts off 
with an electronic intro which is soon accompanied
rest of the song is a change-off between the heavily
distorted power chords and the intro riff.

I also included the lyrics which I transcribed myself.

Tuning: Drop D and a 1/2 Step (Db Ab Db Gb Bb Eb)

Intro
e|--------------|
B|-7-7--7-10--7-|
G|--------------|
D|--------------|
A|--------------|
D|--------------|

Bridge to the Verse
e|----------------|----------------|----------------|----------------|
B|----------------|----------------|----------------|----------------|
G|----------------|-7--------------|----------------|----------------|
D|-9--------------|-7--------------|-7--------------|-5--------------|
A|-9--------------|-5--------------|-7--------------|-5--------------|
D|-9--------------|----------------|-7--------------|-5--------------|


Verse
e|--------------|
B|-7-7--7-10--7-|
G|--------------|
D|--------------|
A|--------------|
D|--------------|

Chorus
e|----------------|----------------|----------------|----------------|
B|----------------|----------------|----------------|----------------|
G|----------------|-7--------------|----------------|----------------|
D|-9--------------|-7--------------|-5--------------|-2--------------|
A|-9--------------|-5--------------|-5--------------|-2--------------|
D|-9--------------|----------------|-5--------------|-2--------------|

Bridge
e|----------------|----------------|---------------|----------------|
B|----------------|----------------|---------------|----------------|
G|--------11-11---|--------11-11---|--------11-11--|----------------|
D|-9-9----11-11---|-5-5----11-11---|-7-7----11-11--|-2-2----0h2-----|
A|-9-9----9--9----|-5-5----9--9----|-7-7----9--9---|-2-2--------4---|
D|-9-9------------|-5-5------------|-7-7-----------|-2-2------------|

e|----------------|----------------|---------------|----------------|
B|----------------|----------------|---------------|----------------|
G|--------11-11---|--------11-11---|--------11-11--|----------------|
D|-9-9----11-11---|-5-5----11-11---|-7-7----11-11--|-2-2----0h2-----|
A|-9-9----9--9----|-5-5----9--9----|-7-7----9--9---|-2-2--------4---|
D|-9-9------------|-5-5------------|-7-7-----------|-2-2------------|

e|----------------|----------------|---------------|----------------|
B|----------------|----------------|---------------|----------------|
G|--------11-11---|--------11-11---|--------14-14--|----------------|
D|-9-9----11-11---|-5-5----11-11---|-7-7----14-14--|-2-2----0h2-----|
A|-9-9----9--9----|-5-5----9--9----|-7-7----12-12--|-2-2--------4---|
D|-9-9------------|-5-5------------|-7-7-----------|-2-2------------|

e|----------------|----------------|---------------|----------------|
B|----------------|----------------|---------------|----------------|
G|--------11-11---|--------11-11---|--------11-11--|----------------|
D|-9-9----11-11---|-5-5----11-11---|-7-7----11-11--|-2-2----0h2-----|
A|-9-9----9--9----|-5-5----9--9----|-7-7----9--9---|-2-2--------4---|
D|-9-9------------|-5-5------------|-7-7-----------|-2-2------------|

Outro
e|----------------|----------------|----------------|----------------|
B|----------------|----------------|----------------|----------------|
G|----------------|-16-16-16-16----|----------------|-16-16-16-16----|
D|-9-9-9-9-9-9----|-14-14-14-14----|-9-9-9-9-9-9----|-14-14-14-14----|
A|-9-9-9-9-9-9----|-14-14-14-14----|-9-9-9-9-9-9----|-14-14-14-14----|
D|-9-9-9-9-9-9----|----------------|-9-9-9-9-9-9----|----------------|
                    Palm Mute                         Palm Mute

e|----------------|----------------|----------------|
B|----------------|----------------|----------------|
G|----------------|-16-16-16-16----|----------------|
D|-9-9-9-9-9-9----|-14-14-14-14----|-9-9-9-9-9-9----|
A|-9-9-9-9-9-9----|-14-14-14-14----|-9-9-9-9-9-9----|
D|-9-9-9-9-9-9----|----------------|-9-9-9-9-9-9----|
                    Palm Mute

Order:

Intro             X9
Bridge to Verse   x2
Verse             x16
Chorus            X4
Verse             X16
Chorus            X4
Bridge            X1
Verse             X4
Chorus            X6
Outro             X1
            
Hard to play? Try these video lessons and learn fast. | Correct




comments powered by Disqus
↑ Back to top | Tablatures and chords are parodies/interpretations of the original songs. You may use it for private study, scholarship, research or language learning purposes only