» » »

Linkin Park, Pushing Me Away Tabs (ver.1)

Artists:  A B C D E F G H I J K L M N O P Q R S T U V W X Y Z # 

Pushing Me Away Tabs (ver.1)

Linkin Park Tabs
Rating:
0/5 (0 votes)
Pushing Me Away lessons Tabs too difficult? Try these video lessons and learn fast
                PROPS GO TO: Dex

Intro/Verses  *-Harmonic
e|-12*-----------------12*--------------------------|
B|-------12*--------7*----12*------12*------7*------|
G|----7*--------5*--------------7*-------12*---7*---|
D|---------------------------7*-------------------7*|
A|----------7*------------------------7*------------|
E|--------------------------------------------------|
Chorus
e|-------------------------------------------------------|
B|-------------------------------------------------------|
G|--------------10-10-10-10-10---------------------------|
D|-4--4--4-4-4--10-10-10-10-10--9--9--9-9-9--9-9--9-9--0-|
A|-4--4--4-4-4--8--8--8--8--8---5--5--5-5-5--9-9--9-9--0-|
E|-2--2--2-2-2--8--8--8--8--8---5--5--5-5-5--7-7--9-9--0-|
"We're all out of time..."
e|------------------------------------------------------|
B|------------------------------------------------------|
G|------------------------------------------------------| x2 then chorus
D|-7--7--7-7-7--9--9--9-9-9--9--9--9-9-9--9-9--9-9--0-9-|
A|-7--5--7-7-7--7--7--7-9-9--9--9--9-9-9--9-9--9-9--0-9-|
E|-5--5--5-5-5--7--7--7-7-7--5--5--5-5-5--7-7--9-9--0-7-|
            

comments powered by Disqus
↑ Back to top | Linkin Park Tabs for Pushing Me Away. Lyrics for acoustic guitar and electric guitar. Tablatures and chords are parodies/interpretations of the original songs. You may use it for private study, scholarship, research or language learning purposes only