>
 >
Part Of Me 2

Part Of Me 2 Guitar Tabs

Linkin Park - Part Of Me 2 chords, tabs, tablatures, lyrics

Guitar lessons | Add/correct | Request | Top 50 tabs Artists:  A B C D E F G H I J K L M N O P Q R S T U V W X Y Z 0-9

Part Of Me 2 Guitar Tabs – Linkin Park

CD, Sheet music, Poster

Do you like Part Of Me 2? Share with your friends now
Bass TabsTabsTabs v2Tabs v3Tabs v4
Tuning: Dropped D one half step down
C# G# C# F# A# D#

   [Intro]
-|--------------------------------------------------------------------------|-
-|--------------------------------------------------------------------------|-
-|--------------------------------------------------------------------------|-
-|--------------------------------------------------------------------------|-
-|--------------------------------------------------------------------------|-
-|-7-7--7-7--3-3--7-7-333-3--3----------------------------------------------|-
   PM........................|

   [Verse] 
-|---------------------8---8------------------------------------------------|-
-|-10--10--10--10--------------8---8---10--10--10--10--12--12---8--8--------|-
-|----9---9---9---9/10--10--10--10--9-----9---9---9---9---9---9---9--9------|-
-|--------------------------------------------------------------------------|-
-|--------------------------------------------------------------------------|-
-|--------------------------------------------------------------------------|-
   Play 4 times.

   [Pre-Chorus]
-|--------------------------------------------------------------------------|-
-|--------------------------------------------------------------------------|-
-|--------------------------------------------------------------------------|-
-|-3-2--3-2--3-2--3-2-22-3--5-----------------------------------------------|-
-|-3-2--3-2--3-2--3-2-22-3--5-----------------------------------------------|-
-|-3-2--3-2--3-2--3-2-22-3--5-----------------------------------------------|-
   Play 4 times.

   [Chorus]
-|--------------------------------------------------------------------------|-
-|--------------------------------------------------------------------------|-
-|--------------------------------------------------------------------------|-
-|-7-7--7-7--3-3--3-3-33-7-7-3-7--7-7--7-7--5-5--5-5-55-10-10-5-10----------|-
-|-7-7--7-7--3-3--3-3-33-7-7-3-7--7-7--7-7--5-5--5-5-55-10-10-5-10----------|-
-|-7-7--7-7--3-3--3-3-33-7-7-3-7--7-7--7-7--5-5--5-5-55-10-10-5-10----------|-

   [Chorus]
-|--------------------------------------------------------------------------|-
-|--------------------------------------------------------------------------|-
-|------------------------------------------------------5--5-----5----------|-
-|-7-7--7-7--3-3--3-3-33-7-7-3-7--7-7--7-7--2-2--2-2-22-5--5--2--5----------|-
-|-7-7--7-7--3-3--3-3-33-7-7-3-7--7-7--7-7--2-2--2-2-22-3--3--2--3----------|-
-|-7-7--7-7--3-3--3-3-33-7-7-3-7--7-7--7-7--2-2--2-2-22-------2-------------|-

   [Pre-Verse]
-|--------------------------------------------------------------------------|-
-|--------------------------------------------------------------------------|-
-|--------------------------------------------------------------------------|-
-|--------------------------------------------------------------------------|-
-|--------------------------------------------------------------------------|-
-|-7-7--7-7--3-3--7-7-333-3--3----------------------------------------------|-
   PM........................|

   [Verse]
-|--------------------------------------------------------------------------|-
-|-10--10---12---12---8--8--------------------------------------------------|-
-|----9---9----9----9---9--9------------------------------------------------|-
-|--------------------------------------------------------------------------|-
-|--------------------------------------------------------------------------|-
-|--------------------------------------------------------------------------|-

   [Verse]
-|---------------------8---8------------------------------------------------|-
-|-10--10--10--10--------------8---8---10--10--10--10--12--12---8--8--------|-
-|----9---9---9---9/10--10--10--10--9-----9---9---9---9---9---9---9--9------|-
-|--------------------------------------------------------------------------|-
-|--------------------------------------------------------------------------|-
-|--------------------------------------------------------------------------|-
   Play 3 times.

   [Pre-Chorus]
-|--------------------------------------------------------------------------|-
-|--------------------------------------------------------------------------|-
-|--------------------------------------------------------------------------|-
-|-3-2--3-2--3-2--3-2-22-3--5-----------------------------------------------|-
-|-3-2--3-2--3-2--3-2-22-3--5-----------------------------------------------|-
-|-3-2--3-2--3-2--3-2-22-3--5-----------------------------------------------|-
   Play 3 times.

   [Pre-Chorus]
-|--------------------------------------------------------------------------|-
-|--------------------------------------------------------------------------|-
-|--------------------------------------------------------------------------|-
-|-3--2--3--2---------------------------------------------------------------|-
-|-3--2--3--2---------------------------------------------------------------|-
-|-3--2--3--2---------------------------------------------------------------|-
   PM.......|

   [Chorus]
-|--------------------------------------------------------------------------|-
-|--------------------------------------------------------------------------|-
-|--------------------------------------------------------------------------|-
-|-7-7--7-7--3-3--3-3-33-7-7-3-7--7-7--7-7--5-5--5-5-55-10-10-5-10----------|-
-|-7-7--7-7--3-3--3-3-33-7-7-3-7--7-7--7-7--5-5--5-5-55-10-10-5-10----------|-
-|-7-7--7-7--3-3--3-3-33-7-7-3-7--7-7--7-7--5-5--5-5-55-10-10-5-10----------|-

   [Chorus]
-|--------------------------------------------------------------------------|-
-|--------------------------------------------------------------------------|-
-|------------------------------------------------------5--5-----5----------|-
-|-7-7--7-7--3-3--3-3-33-7-7-3-7--7-7--7-7--2-2--2-2-22-5--5--2--5----------|-
-|-7-7--7-7--3-3--3-3-33-7-7-3-7--7-7--7-7--2-2--2-2-22-3--3--2--3----------|-
-|-7-7--7-7--3-3--3-3-33-7-7-3-7--7-7--7-7--2-2--2-2-22-------2-------------|-

   [Chorus]
-|--------------------------------------------------------------------------|-
-|--------------------------------------------------------------------------|-
-|--------------------------------------------------------------------------|-
-|-7-7--7-7--3-3--3-3-33-7-7-3-7--7-7--7-7--5-5--5-5-55-10-10-5-10----------|-
-|-7-7--7-7--3-3--3-3-33-7-7-3-7--7-7--7-7--5-5--5-5-55-10-10-5-10----------|-
-|-7-7--7-7--3-3--3-3-33-7-7-3-7--7-7--7-7--5-5--5-5-55-10-10-5-10----------|-

   [Chorus]
-|--------------------------------------------------------------------------|-
-|--------------------------------------------------------------------------|-
-|------------------------------------------------------5--5-----5----------|-
-|-7-7--7-7--3-3--3-3-33-7-7-3-7--7-7--7-7--2-2--2-2-22-5--5--2--5----------|-
-|-7-7--7-7--3-3--3-3-33-7-7-3-7--7-7--7-7--2-2--2-2-22-3--3--2--3----------|-
-|-7-7--7-7--3-3--3-3-33-7-7-3-7--7-7--7-7--2-2--2-2-22-------2-------------|-


   [Bridge]
-|---------------------8---8------------------------------------------------|-
-|-10--10--10--10--------------8---8---10--10--10--10--12--12---8--8--------|-
-|----9---9---9---9/10--10--10--10--9-----9---9---9---9---9---9---9--9------|-
-|--------------------------------------------------------------------------|-
-|--------------------------------------------------------------------------|-
-|--------------------------------------------------------------------------|-
   Play 4 times.

   [Chorus]
-|--------------------------------------------------------------------------|-
-|--------------------------------------------------------------------------|-
-|--------------------------------------------------------------------------|-
-|-7-7--7-7--3-3--3-3-33-7-7-3-7--7-7--7-7--5-5--5-5-55-10-10-5-10----------|-
-|-7-7--7-7--3-3--3-3-33-7-7-3-7--7-7--7-7--5-5--5-5-55-10-10-5-10----------|-
-|-7-7--7-7--3-3--3-3-33-7-7-3-7--7-7--7-7--5-5--5-5-55-10-10-5-10----------|-

   [Chorus]
-|--------------------------------------------------------------------------|-
-|--------------------------------------------------------------------------|-
-|------------------------------------------------------5--5-----5----------|-
-|-7-7--7-7--3-3--3-3-33-7-7-3-7--7-7--7-7--2-2--2-2-22-5--5--2--5----------|-
-|-7-7--7-7--3-3--3-3-33-7-7-3-7--7-7--7-7--2-2--2-2-22-3--3--2--3----------|-
-|-7-7--7-7--3-3--3-3-33-7-7-3-7--7-7--7-7--2-2--2-2-22-------2-------------|-

   [Chorus]
-|--------------------------------------------------------------------------|-
-|--------------------------------------------------------------------------|-
-|--------------------------------------------------------------------------|-
-|-7-7--7-7--3-3--3-3-33-7-7-3-7--7-7--7-7--5-5--5-5-55-10-10-5-10----------|-
-|-7-7--7-7--3-3--3-3-33-7-7-3-7--7-7--7-7--5-5--5-5-55-10-10-5-10----------|-
-|-7-7--7-7--3-3--3-3-33-7-7-3-7--7-7--7-7--5-5--5-5-55-10-10-5-10----------|-

   [Chorus]
-|--------------------------------------------------------------------------|-
-|--------------------------------------------------------------------------|-
-|------------------------------------------------------5--5-----5----------|-
-|-7-7--7-7--3-3--3-3-33-7-7-3-7--7-7--7-7--2-2--2-2-22-5--5--2--5----------|-
-|-7-7--7-7--3-3--3-3-33-7-7-3-7--7-7--7-7--2-2--2-2-22-3--3--2--3----------|-
-|-7-7--7-7--3-3--3-3-33-7-7-3-7--7-7--7-7--2-2--2-2-22-------2-------------|-

   [Chorus]
-|--------------------------------------------------------------------------|-
-|--------------------------------------------------------------------------|-
-|--------------------------------------------------------------------------|-
-|-7-7--7-7--3-3--3-3-33-7-7-3-7--7-7--7-7--5-5--5-5-55-10-10-5-10----------|-
-|-7-7--7-7--3-3--3-3-33-7-7-3-7--7-7--7-7--5-5--5-5-55-10-10-5-10----------|-
-|-7-7--7-7--3-3--3-3-33-7-7-3-7--7-7--7-7--5-5--5-5-55-10-10-5-10----------|-

   [Chorus]
-|--------------------------------------------------------------------------|-
-|--------------------------------------------------------------------------|-
-|------------------------------------------------------5--5-----5----------|-
-|-7-7--7-7--3-3--3-3-33-7-7-3-7--7-7--7-7--2-2--2-2-22-5--5--2--5----------|-
-|-7-7--7-7--3-3--3-3-33-7-7-3-7--7-7--7-7--2-2--2-2-22-3--3--2--3----------|-
-|-7-7--7-7--3-3--3-3-33-7-7-3-7--7-7--7-7--2-2--2-2-22-------2-------------|-





Comments


Popular Linkin Park tabs & chords
Burning In The Skies Bass Tabs
Figure. 09 1 Bass Tabs
Pushing Me Away 3 Chords
By Myself Remix Tabs
Dirt Off Your Shoulder Lying From You Tabs
In The End 5 Tabs
Little Things Give You Away 1 Tabs
No More Sorrow Tabs
One Step Closer Break Tabs
Somewhere I Belong - Bb Tuning Tabs


Song lyrics



↑ Back to top | Tablatures and chords are parodies/interpretations of the original songs. You may use it for private study, scholarship, research or language learning purposes only
© 2014 AZChords.com Contact us | Privacy policy | DMCA | Add/correct tabs | Request tabs | Top 50 tabs