» » »

Papercut Written By This One Dude Tabs (ver.1)

Artists:  A B C D E F G H I J K L M N O P Q R S T U V W X Y Z # 

Papercut Written By This One Dude Tabs (ver.1)

Linkin Park
Rating:
0/5 (0 votes)

Hard to play? Try these video lessons and learn fast.
                Tuning:Db,Ab,Db,Gb,Bb,Eb

Main Riff(repeat this through the chorus and the outro)
--10----12----13----12--------
-----10----10----10----10-----
------------------------------
------------------------------
------------------------------
------------------------------

Chorus
--0-0-0--8-7--0-3-3-3-3----------------------------1-1-3-0-0-0---
--0-0-0--8-7--0-3-3-3-3--repeat-this-a-few-times---1-1-3-0-0-0---
--0-0-0--8-7--0-3-3-3-3----------------------------1-1-3-0-0-0---

Verse
---------------------------------
---------------------------------
---------------------------------
-0-0-0--8-8-8-8--7-7--1-1-3------
-0-0-0--8-8-8-8--7-7--1-1-3------
-0-0-0--8-8-8-8--7-7--1-1-3------

Outro: "The sun goes Down....."
--------------------------------------
--------------------------------------
--------------------------------------
--8-8-8-8-10-10-10-10-5-5-5-5-5-5-5-5-
--8-8-8-8-10-10-10-10-5-5-5-5-5-5-5-5-
--8-8-8-8-10-10-10-10-5-5-5-5-5-5-5-5-

end on
--------------
--------------
--------------
-1-1-3-0-0-0--
-1-1-3-0-0-0--
-1-1-3-0-0-0--
            
Hard to play? Try these video lessons and learn fast. | Correct




comments powered by Disqus
↑ Back to top | Tablatures and chords are parodies/interpretations of the original songs. You may use it for private study, scholarship, research or language learning purposes only