» » »

Numb Intro And Tabs (ver.1)

Artists:  A B C D E F G H I J K L M N O P Q R S T U V W X Y Z # 

Numb Intro And Tabs (ver.1)

Linkin Park
Rating:
0/5 (0 votes)

Hard to play? Try these video lessons and learn fast.
                (Outro)

NUMB

this is the intro and outro:

e--------------11-10-
b-----11----13-------
g--12----12----------
d--------------------
a--------------------
e--------------------

e--------------11-6-
b-----11----13------
g--12----12---------
d-------------------
a-------------------
e-------------------

e--------------
b-----11----13-
g--12----12----
d--------------
a--------------
e--------------

that's all! this must be played on piano but this is the version on guitar!
            
Hard to play? Try these video lessons and learn fast. | Correct




comments powered by Disqus
↑ Back to top | Tablatures and chords are parodies/interpretations of the original songs. You may use it for private study, scholarship, research or language learning purposes only