» » »

Linkin Park, New Divide Tabs (ver.1)

Artists:  A B C D E F G H I J K L M N O P Q R S T U V W X Y Z # 

New Divide Tabs (ver.1)

Linkin Park Tabs
 Rating:
4/5 (4 votes)
New Divide lessons Tabs too difficult? Try these video lessons and learn fast

WWW.AZCHORDS.COM | Linkin Park Tabs - New Divide Tabs (ver. 1)



Gtr I-  Mr.Han
GtrII-Brad Delson
GtrIII-Mike

Intro-F G#m Eb Bb 4x
GtrI
|-----------------------------------------------------------|
|--------------------------4~-------------------------------|
|-1~---------5~---------------3~--------------5~------------|
|----3~---------3~--------------------------------3~--------|2x
|-----------------------------------------------------------|
|-----------------------------------------------------------|

then-Gtrs II & III enters
GtrI
|-----------------------------------------------------------|
|--------------------------4~-------------------------------|
|-1~---------5~---------------3~--------------5~------------|
|----3~---------3~--------------------------------3~--------|2x
|-----------------------------------------------------------|
|-----------------------------------------------------------|

GtrII
|---------------------------------------------------------------------------|
|---------------------------------------------------------------------------|
|-1010101010101010-1010101010101010---8-8-8-8-8-8-8-8-1212121212121212------|
|---------------------------------------------------------------------------|2x 
|-8-8-8-8-8-8-8-8--8-8-8-8-8-8-8-8----6-6-6-6-6-6-6-6-1010101010101010------|
|---------------------------------------------------------------------------|

Gtr III
|-------------------------------------------------------------------------|
|-------------------------------------------------------------------------|
|-------------------------------------------------------------------------|
|---3-3-3-3-3-3-3-3-6-6-6-6-6-6-6-6-1-1-1-1-1-1-1-1-8-8-8-8-8-8-8-8-------|2x
|---3-3-3-3-3-3-3-3-6-6-6-6-6-6-6-6-1-1-1-1-1-1-1-1-8-8-8-8-8-8-8-8-------|
|---3-3-3-3-3-3-3-3-6-6-6-6-6-6-6-6-1-1-1-1-1-1-1-1-8-8-8-8-8-8-8-8-------|


Verse-F G#m Eb Bb 3x
I remembered black skies
The lightning all around me
I remembered each flash
As time began to blur
Like a startling sign that fate had finally found me
GtrII
|-----------------------------------------------------------|
|-----------------------------------------------------------|
|-10~-------------------------------------------------------|
|-----------------------------------------------------------|
|-8~--------------------------------------------------------|
|-----------------------------------------------------------|

Refrain-C# Bb

And your voice was all I heard
Did I get what I deserve

Chorus-F F Eb Bb
       F G#m Eb Bb 2x
       C# Eb
So give me reason to prove me wrong
To wash this memory clean

GtrII
|---------------------------------------------------------------------------|
|---------------------------------------------------------------------------|
|-1010101010101010-1010101010101010--1212121212121212-1010101010101010------|
|---------------------------------------------------------------------------|3x  
|-8-8-8-8-8-8-8-8--8-8-8-8-8-8-8-8---1010101010101010-8-8-8-8-8-8-8-8-------|
|---------------------------------------------------------------------------|
GtrIII
|-------------------------------------------------------------------------|
|-------------------------------------------------------------------------|
|-------------------------------------------------------------------------|
|----3-3-3-3-3-3-3-3-3-3-3-3-3-3-3-3-1-1-1-1-1-1-1-1-8-8-8-8-8-8-8-8------|
|----3-3-3-3-3-3-3-3-3-3-3-3-3-3-3-3-1-1-1-1-1-1-1-1-8-8-8-8-8-8-8-8------|
|----3-3-3-3-3-3-3-3-3-3-3-3-3-3-3-3-1-1-1-1-1-1-1-1-8-8-8-8-8-8-8-8------|

Let the thoughts cross the distance in your eyes

GtrII
|---------------------------------------------------------------------|
|---------------------------------------------------------------------|
|--1010101010101010---8-8-8-8-8-8-8-8-1212121212121212--131313-121212-|
|---------------------------------------------------------------------| 
|--8-8-8-8-8-8-8-8----6-6-6-6-6-6-6-6-1010101010101010--111111-101010-|
|---------------------------------------------------------------------|
GtrIII
|-------------------------------------------------------------------------|
|-------------------------------------------------------------------------|
|-------------------------------------------------------------------------|
|----3-3-3-3-3-3-3-3-6-6-6-6-6-6-6-6-1-1-1-1-1-1-1-1-1-1-1-1-1-1-1-1------|
|----3-3-3-3-3-3-3-3-6-6-6-6-6-6-6-6-1-1-1-1-1-1-1-1-1-1-1-1-1-1-1-1------|
|----3-3-3-3-3-3-3-3-6-6-6-6-6-6-6-6-1-1-1-1-1-1-1-1-1-1-1-1-1-1-1-1------|

Give me reason to fail this all,
connect the space between

GtrII
|---------------------------------------------------------------------------|
|---------------------------------------------------------------------------|
|--1010101010101010---8-8-8-8-8-8-8-8-1212121212121212-1010101010101010-----|
|---------------------------------------------------------------------------|2x 
|--8-8-8-8-8-8-8-8----6-6-6-6-6-6-6-6-1010101010101010--8-8-8-8-8-8-8-8-----|
|---------------------------------------------------------------------------|


GtrIII
|-------------------------------------------------------------------------|
|-------------------------------------------------------------------------|
|-------------------------------------------------------------------------|
|---3-3-3-3-3-3-3-3-6-6-6-6-6-6-6-6-1-1-1-1-1-1-1-1-8-8-8-8-8-8-8-8-------|
|---3-3-3-3-3-3-3-3-6-6-6-6-6-6-6-6-1-1-1-1-1-1-1-1-8-8-8-8-8-8-8-8-------|
|---3-3-3-3-3-3-3-3-6-6-6-6-6-6-6-6-1-1-1-1-1-1-1-1-8-8-8-8-8-8-8-8-------|

Let it be enough to reach the truth and lies
Across this new divide
GtrII
|---------------------------------------------------------------------|
|---------------------------------------------------------------------|
|-1313131313131313-1313131313131313-1515151515151515-1515151515151515-|
|---------------------------------------------------------------------|
|-1111111111111111-1111111111111111-1313131313131313-1313131313131313-|
|---------------------------------------------------------------------|
GTrIII
|-------------------------------------------------------------------------|
|-------------------------------------------------------------------------|
|---6-6-6-6-6-6-6-6-6-6-6-6-6-6-6-6-8-8-8-8-8-8-8-8-8-8-8-8-8-8-8-8-------|
|---6-6-6-6-6-6-6-6-6-6-6-6-6-6-6-6-8-8-8-8-8-8-8-8-8-8-8-8-8-8-8-8-------|
|---4-4-4-4-4-4-4-4-4-4-4-4-4-4-4-4-6-6-6-6-6-6-6-6-6-6-6-6-6-6-6-6-------|
|-------------------------------------------------------------------------|

Interlude-F G#m Eb Bb 

GtrI
|-----------------------------------------------------------|
|--------------------------4~-------------------------------|
|-1~---------5~---------------3~--------------5~------------|
|----3~---------3~--------------------------------3~--------| 
|-----------------------------------------------------------|
|-----------------------------------------------------------|
GtrII
|---------------------------------------------------------------------------|
|---------------------------------------------------------------------------|
|-1010101010101010-1010101010101010---8-8-8-8-8-8-8-8-1212121212121212--10~-|
|---------------------------------------------------------------------------|3x2x 
|-8-8-8-8-8-8-8-8--8-8-8-8-8-8-8-8----6-6-6-6-6-6-6-6-1010101010101010--8~--|
|---------------------------------------------------------------------------|


GtrIII

|-------------------------------------------------------------------------|
|-------------------------------------------------------------------------|
|-------------------------------------------------------------------------|
|---3-3-3-3-3-3-3-3-6-6-6-6-6-6-6-6-1-1-1-1-1-1-1-1-8-8-8-8-8-8-8-8---3~--|
|---3-3-3-3-3-3-3-3-6-6-6-6-6-6-6-6-1-1-1-1-1-1-1-1-8-8-8-8-8-8-8-8---3~--|
|---3-3-3-3-3-3-3-3-6-6-6-6-6-6-6-6-1-1-1-1-1-1-1-1-8-8-8-8-8-8-8-8---3~--|

Verse 
F G# Eb Bb3x
There was nothing inside
the memories left abandoned
There was nowhere to hide
The ashes fell like snow
And the ground caved in
between where we were standing
Refrain- C# Bb

And your voice was all I heard
Did I get what I deserve
Chorus-

F F Eb Bb
F G#m Eb Bb 

GtrII
|---------------------------------------------------------------------------|
|---------------------------------------------------------------------------|
|-1010101010101010-1010101010101010--1212121212121212-1010101010101010------|
|---------------------------------------------------------------------------|3x  
|-8-8-8-8-8-8-8-8--8-8-8-8-8-8-8-8---1010101010101010-8-8-8-8-8-8-8-8-------|
|---------------------------------------------------------------------------|
GtrIII
|-------------------------------------------------------------------------|
|-------------------------------------------------------------------------|
|-------------------------------------------------------------------------|
|----3-3-3-3-3-3-3-3-3-3-3-3-3-3-3-3-1-1-1-1-1-1-1-1-8-8-8-8-8-8-8-8------|
|----3-3-3-3-3-3-3-3-3-3-3-3-3-3-3-3-1-1-1-1-1-1-1-1-8-8-8-8-8-8-8-8------|
|----3-3-3-3-3-3-3-3-3-3-3-3-3-3-3-3-1-1-1-1-1-1-1-1-8-8-8-8-8-8-8-8------|

GtrII
|---------------------------------------------------------------------|
|---------------------------------------------------------------------|
|--1010101010101010---8-8-8-8-8-8-8-8-1212121212121212--131313-121212-|
|---------------------------------------------------------------------| 
|--8-8-8-8-8-8-8-8----6-6-6-6-6-6-6-6-1010101010101010--111111-101010-|
|---------------------------------------------------------------------|
GtrIII
|-------------------------------------------------------------------------|
|-------------------------------------------------------------------------|
|-------------------------------------------------------------------------|
|----3-3-3-3-3-3-3-3-6-6-6-6-6-6-6-6-1-1-1-1-1-1-1-1-1-1-1-1-1-1-1-1------|
|----3-3-3-3-3-3-3-3-6-6-6-6-6-6-6-6-1-1-1-1-1-1-1-1-1-1-1-1-1-1-1-1------|
|----3-3-3-3-3-3-3-3-6-6-6-6-6-6-6-6-1-1-1-1-1-1-1-1-1-1-1-1-1-1-1-1------|



Interlude-
GtrIII
|-----------------------------------------------------------|
|-----------------------------------------------------------|
|-----------------------------------------------------------|
|-------------333---33---33----33---------333----33-----333-|
|-------------333---33---33----33---------333----33-----333-|
|-------------333---33---33----33---------333----33-----333-|
GtrII
|-------------------------------------------------------|
|----------11-------------------------------------------|
|------------------------------------1010---------------|
|-------------10*--------------------------------66-----|4x
|---8-8-88-----------8-8-88----5/6^---------5/6^--------|
|-------------------------------------------------------|


Bridge-
F G#m Eb Bb 2x
C# Bb

And every loss and every lie
And every truth that you deny
And each regret and each divide
with some mistakes you've made too high

GtrII
|---------------------------------------------------------------------------|
|---------------------------------------------------------------------------|
|-1010101010101010-1010101010101010---8-8-8-8-8-8-8-8-1212121212121212------|
|---------------------------------------------------------------------------|2x 
|-8-8-8-8-8-8-8-8--8-8-8-8-8-8-8-8----6-6-6-6-6-6-6-6-1010101010101010------|
|---------------------------------------------------------------------------|
GtrIII
|-------------------------------------------------------------------------|
|-------------------------------------------------------------------------|
|-------------------------------------------------------------------------|
|---3-3-3-3-3-3-3-3-6-6-6-6-6-6-6-6-1-1-1-1-1-1-1-1-8-8-8-8-8-8-8-8-------|
|---3-3-3-3-3-3-3-3-6-6-6-6-6-6-6-6-1-1-1-1-1-1-1-1-8-8-8-8-8-8-8-8-------|
|---3-3-3-3-3-3-3-3-6-6-6-6-6-6-6-6-1-1-1-1-1-1-1-1-8-8-8-8-8-8-8-8-------|


And your voice was all i heard
Did i get what i deserve
GtrII
|---------------------------------------------------------------------------|
|---------------------------------------------------------------------------|
|-10101010-12121212-13131313-15151515--10101010-12121212-13131313-15151515--|
|---------------------------------------------------------------------------|
|-8-8-8-8--10101010-11111111-13131313--8-8-8-8--10101010-11111111-13131313--|
|---------------------------------------------------------------------------|
GtrIII
|-----------------------------------------------------------------------|
|-----------------------------------------------------------------------|
|---6-6-6-6-6-6-6-6-6-6-6-6-6-6-6-6-3-3-3-3-3-3-3-3-3-3-3-3---6---6-----|
|---6-6-6-6-6-6-6-6-6-6-6-6-6-6-6-6-3-3-3-3-3-3-3-3-3-3-3-3---6---6-----|
|---4-4-4-4-4-4-4-4-4-4-4-4-4-4-4-4-1-1-1-1-1-1-1-1-1-1-1-1---4---4-----|
|-----------------------------------------------------------------------|


Chorus-
F F Eb Bb
F G#m Eb Bb 2x
C# Eb

So give me reason to prove me wrong
To wash this memory clean
Let the thoughts cross the distance in your eyes


GtrII
|---------------------------------------------------------------------------|
|---------------------------------------------------------------------------|
|-1010101010101010-1010101010101010--1212121212121212-1010101010101010------|
|---------------------------------------------------------------------------|3x  
|-8-8-8-8-8-8-8-8--8-8-8-8-8-8-8-8---1010101010101010-8-8-8-8-8-8-8-8-------|
|---------------------------------------------------------------------------|

|---------------------------------------------------------------------|
|---------------------------------------------------------------------|
|--1010101010101010---8-8-8-8-8-8-8-8-1212121212121212--131313-121212-|
|---------------------------------------------------------------------| 
|--8-8-8-8-8-8-8-8----6-6-6-6-6-6-6-6-1010101010101010--111111-101010-|
|---------------------------------------------------------------------|


Guitar III enters..
Give me reason to fail this all,
connect the space between


GtrII
|---------------------------------------------------------------------------|
|---------------------------------------------------------------------------|
|--1010101010101010---8-8-8-8-8-8-8-8-1212121212121212-1010101010101010-----|
|---------------------------------------------------------------------------|2x 
|--8-8-8-8-8-8-8-8----6-6-6-6-6-6-6-6-1010101010101010--8-8-8-8-8-8-8-8-----|
|---------------------------------------------------------------------------|

GtrIII
|-------------------------------------------------------------------------|
|-------------------------------------------------------------------------|
|-------------------------------------------------------------------------|
|---3-3-3-3-3-3-3-3-6-6-6-6-6-6-6-6-1-1-1-1-1-1-1-1-8-8-8-8-8-8-8-8-------|
|---3-3-3-3-3-3-3-3-6-6-6-6-6-6-6-6-1-1-1-1-1-1-1-1-8-8-8-8-8-8-8-8-------|
|---3-3-3-3-3-3-3-3-6-6-6-6-6-6-6-6-1-1-1-1-1-1-1-1-8-8-8-8-8-8-8-8-------|

Let it be enough to reach the truth and lies
GtrII
|---------------------------------------------------------------------|
|---------------------------------------------------------------------|
|-1313131313131313-1313131313131313-1515151515151515-1515151515151515-|
|---------------------------------------------------------------------|
|-1111111111111111-1111111111111111-1313131313131313-1313131313131313-|
|---------------------------------------------------------------------|

GtrIII
|-------------------------------------------------------------------------|
|-------------------------------------------------------------------------|
|---6-6-6-6-6-6-6-6-6-6-6-6-6-6-6-6-8-8-8-8-8-8-8-8-8-8-8-8-8-8-8-8-------|
|---6-6-6-6-6-6-6-6-6-6-6-6-6-6-6-6-8-8-8-8-8-8-8-8-8-8-8-8-8-8-8-8-------|
|---4-4-4-4-4-4-4-4-4-4-4-4-4-4-4-4-6-6-6-6-6-6-6-6-6-6-6-6-6-6-6-6-------|
|-------------------------------------------------------------------------|


Outro-  F G#m Eb Bb 2x F

Across this new divide
Across this new divide

GtrI
|-----------------------------------------------------------|
|--------------------------4~-------------------------------|
|-1~---------5~---------------3~--------------5~------------|
|----3~---------3~--------------------------------3~--------|till fade
|-----------------------------------------------------------|
|-----------------------------------------------------------|

GtrII
|---------------------------------------------------------------------------|
|---------------------------------------------------------------------------|
|-1010101010101010-1010101010101010---8-8-8-8-8-8-8-8-1212121212121212------|
|---------------------------------------------------------------------------|2x 
|-8-8-8-8-8-8-8-8--8-8-8-8-8-8-8-8----6-6-6-6-6-6-6-6-1010101010101010------|
|---------------------------------------------------------------------------|

|---------------------------------------------------------------------------|
|---------------------------------------------------------------------------|
|-1010101010101010-1010101010101010---8-8-8-8-8-8-8-8-1212121212121212--10~-|
|---------------------------------------------------------------------------| 
|-8-8-8-8-8-8-8-8--8-8-8-8-8-8-8-8----6-6-6-6-6-6-6-6-1010101010101010--8~--|
|---------------------------------------------------------------------------|

GtrIII
|-------------------------------------------------------------------------|
|-------------------------------------------------------------------------|
|-------------------------------------------------------------------------|
|---3-3-3-3-3-3-3-3-6-6-6-6-6-6-6-6-1-1-1-1-1-1-1-1-8-8-8-8-8-8-8-8-------|
|---3-3-3-3-3-3-3-3-6-6-6-6-6-6-6-6-1-1-1-1-1-1-1-1-8-8-8-8-8-8-8-8-------|
|---3-3-3-3-3-3-3-3-6-6-6-6-6-6-6-6-1-1-1-1-1-1-1-1-8-8-8-8-8-8-8-8-------|
GtrIII
|-------------------------------------------------------------------------|
|-------------------------------------------------------------------------|
|-------------------------------------------------------------------------|
|---3-3-3-3-3-3-3-3-6-6-6-6-6-6-6-6-1-1-1-1-1-1-1-1-8-8-8-8-8-8-8-8---3~--|
|---3-3-3-3-3-3-3-3-6-6-6-6-6-6-6-6-1-1-1-1-1-1-1-1-8-8-8-8-8-8-8-8---3~--|
|---3-3-3-3-3-3-3-3-6-6-6-6-6-6-6-6-1-1-1-1-1-1-1-1-8-8-8-8-8-8-8-8---3~--|

Lyrics:

I remembered black skies
The lightning all around me
I remembered each flash
As time began to blur
Like a startling sign that fate had finally found me
And your voice was all I heard
Did I get what I deserve

So give me reason to prove me wrong
To wash this memory clean
Let the thoughts cross the distance in your eyes
Give me reason to fail this all,
connect the space between
Let it be enough to reach the truth and lies
Across this new divide

There was nothing inside
the memories left abandoned
There was nowhere to hide
The ashes fell like snow
And the ground caved in
between where we were standing

And your voice was all I heard
Did I get what I deserve

So give me reason
To Prove me wrong
To wash this memory clean
Let the Thoughts cross the distance in your eyes
Across this new divide


And every loss and every lie
And every truth that you deny
And each regret and each divide
with some mistakes you've made too high
And your voice was all i heard
Did i get what i deserve

So give me reason to prove me wrong
To wash this memory clean
Let the thoughts cross the distance in your eyes
Give me reason to fail this all,
connect the space between
Let it be enough to reach the truth and lies

Across this new divide
Across this new divide
            
Submit corrections

↑ Back to top | Linkin Park Tabs for New Divide. Lyrics for acoustic guitar and electric guitar. Tablatures and chords are parodies/interpretations of the original songs. You may use it for private study, scholarship, research or language learning purposes only