» » »

My December W/All Piano Parts Tabs (ver.1)

Artists:  A B C D E F G H I J K L M N O P Q R S T U V W X Y Z # 

My December W/All Piano Parts Tabs (ver.1)

Linkin Park
Rating:
0/5 (0 votes)

Hard to play? Try these video lessons and learn fast.
                LP-My December
Standard tuning-EADGBe

Intro/Verse Piano arranged into guitar
--------------------------------------
--------------------------------------
--------------------------------------
----3-2-3---3-2-3-----3-2-3---3-2-3---
--5-------5--------3--------3---------
--------------------------------------

H=Harmonic
Guitar part
-------------------------------------
-------------------------------------
--------7H------------12H------------
--5--5--------5--5-------------------
-------------------------------------
-------------------------------------

Chorus
--------------------------------------------
--------------------------------------------
--5--5-5----------5--5-5-------7--5---------
----------5---3----------5--3-------5-------
--------------------------------------------
--------------------------------------------

By DJH
            
Hard to play? Try these video lessons and learn fast. | Correct




comments powered by Disqus
↑ Back to top | Tablatures and chords are parodies/interpretations of the original songs. You may use it for private study, scholarship, research or language learning purposes only