» » »

Meteora-Somewhere I Belong Tabs (ver.2)

Artists:  A B C D E F G H I J K L M N O P Q R S T U V W X Y Z # 

Meteora-Somewhere I Belong Tabs (ver.2)

Linkin Park
Rating:
0/5 (0 votes)

Hard to play? Try these video lessons and learn fast.
                Tuning: (Low to High) Db Ab Db Gb Bb Eb
   
ALright I've watched the  music video for this song over and over and tabbed the song from there.  Then I watched Linkin Park play this song live on three different occasions on T.V. So I believe this tab should be 100% correct!

Brad Delson and Mike Shinoda both play guitar for this song.  Brad's part is Gtr 1 and Mike's is Gtr 2.  Gtr 3 is not necessary because it's only a volum swell, but they used it for the song on the album so I've tabbed that as well.

Brad's part in the very beginning was actually going to be played on a keyboard until he made up this sweet effect instead.  Many people believe that this is just a DJ effect, but it's not.  This effect is looped into the song in various parts via Mr. Hahn.

[*all natural harmonics] - (lay finger over fretbar w/o pushing down)
d = downstroke
u = upstroke
x = palm mute

Intro
Gtr 1 (Brad's effect on this is a clean tone with a backward loop effect.)
(Riff 1)
Eb||------------------------|
Bb||--(3)-------------------|
Gb||---4-----4-----6-----4--| repeat 2x
Db||---4-----5-----7--------|
Ab||---------------------5--|
Db||------------------------|

Gtr 1 (Clean Tone)
(Riff 2)
Eb||------------------|
Bb||----------10-----|
Gb||---11---11---11--| repeat 4x
Db||-9----9-----------|
Ab||------------------|
Db||------------------|

Gtr 3 (w/ distortion) on last repeat
(Riff 3)
|--------------------------|
|--------------------------|
|-4+=======================|
|-x+===volume swell========|
|-2+=======================|
|--------------------------|

Gtr 1 (Distortion)    1.__________________ 2.____________________(Let Ring on last repeat)
(Riff 4)
|---------------------|--------------------|---------------------|---|
|---------------------|--------------------|---------------------|---|
|-8-8-8-8-8-9-9-9-9-9-|1111111111-9-9-9-9-9|-6-6-6-6-6-4-4-4-4-4-|-4=|
|-x-x-x-x-x-x-x-x-x-x-|x-x-x-x-x--x-x-x-x-x|-x-x-x-x-x-x-x-x-x-x-|-x-|
|-6-6-6-6-6-7-7-7-7-7-|9-9-9-9-9--7-7-7-7-7|-4-4-4-4-4-2-2-2-2-2-|-2=|
|---------------------|--------------------|---------------------|---|


Gtr 2 (Distortion)    1.__________________ 2.____________________
(Riff 5)
|---------------------|--------------------|---------------------|
|---------------------|--------------------|---------------------|
|---------------------|--------------------|---------------------|
|-4-4-4-4-4-0-0-0-0-0-|5-5-5-5-5-2-2-2-2-2-|-7-7-7-7-7-2-2-2-2-2-|
|-2-2-2-2-2-0-0-0-0-0-|5-5-5-5-5-2-2-2-2-2-|-7-7-7-7-7-2-2-2-2-2-|
|-4-4-4-4-4-0-0-0-0-0-|5-5-5-5-5-2-2-2-2-2-|-7-7-7-7-7-2-2-2-2-2-|

Pre-Verse
Gtr 1 plays Riff 1, 1 time

Verse 1
Gtr 1 plays Riff 2, 8 times


Pre-Chorus
Gtr 2 (Fill 1)
|--------|--------|
|--------|--------|
|--------|--------| (HARMONICS)
|-[*44444|*44444]-|  
|-[*44444|*44444]-| 
|-[*44444|*44444]-|
    dudud  ududu

Chorus 
Gtr 1 (Distortion)    1.__________________ 2.____________________
(Riff 4)
|---------------------|--------------------|---------------------|
|---------------------|--------------------|---------------------|
|-8-8-8-8-8-9-9-9-9-9-|1111111111-9-9-9-9-9|-6-6-6-6-6-4-4-4-4-4-|
|-x-x-x-x-x-x-x-x-x-x-|x-x-x-x-x--x-x-x-x-x|-x-x-x-x-x-x-x-x-x-x-|
|-6-6-6-6-6-7-7-7-7-7-|9-9-9-9-9--7-7-7-7-7|-4-4-4-4-4-2-2-2-2-2-|
|---------------------|--------------------|---------------------|


Gtr 2 (Distortion)    1.__________________ 2.____________________
(Riff 5)
|---------------------|--------------------|---------------------|
|---------------------|--------------------|---------------------|
|---------------------|--------------------|---------------------|
|-4-4-4-4-4-0-0-0-0-0-|5-5-5-5-5-2-2-2-2-2-|-7-7-7-7-7-2-2-2-2-2-|
|-2-2-2-2-2-0-0-0-0-0-|5-5-5-5-5-2-2-2-2-2-|-7-7-7-7-7-2-2-2-2-2-|
|-4-4-4-4-4-0-0-0-0-0-|5-5-5-5-5-2-2-2-2-2-|-7-7-7-7-7-2-2-2-2-2-|
                      
Verse 2
Gtr 1 plays riff 2, 8 times

Pre-Chorus
Gtr 2 (Fill 2)
|---------|
|---------|
|---------| (HARMONICS)
|-[*44444]|  
|-[*44444]|
|-[*44444]|
    dudud  

Chorus
Gtr 1 (Distortion)    1.__________________ 2.____________________
(Riff 4)
|---------------------|--------------------|---------------------|
|---------------------|--------------------|---------------------|
|-8-8-8-8-8-9-9-9-9-9-|1111111111-9-9-9-9-9|-6-6-6-6-6-4-4-4-4-4-|
|-x-x-x-x-x-x-x-x-x-x-|x-x-x-x-x--x-x-x-x-x|-x-x-x-x-x-x-x-x-x-x-|
|-6-6-6-6-6-7-7-7-7-7-|9-9-9-9-9--7-7-7-7-7|-4-4-4-4-4-2-2-2-2-2-|
|---------------------|--------------------|---------------------|


Gtr 2 (Distortion)    1.__________________ 2.____________________
(Riff 5)
|---------------------|--------------------|---------------------|
|---------------------|--------------------|---------------------|
|---------------------|--------------------|---------------------|
|-4-4-4-4-4-0-0-0-0-0-|5-5-5-5-5-2-2-2-2-2-|-7-7-7-7-7-2-2-2-2-2-|
|-2-2-2-2-2-0-0-0-0-0-|5-5-5-5-5-2-2-2-2-2-|-7-7-7-7-7-2-2-2-2-2-|
|-4-4-4-4-4-0-0-0-0-0-|5-5-5-5-5-2-2-2-2-2-|-7-7-7-7-7-2-2-2-2-2-|

Bridge
Gtr 1 (Distortion)
(Riff 6) 
|------------------------------------------------------------|
|------------------------------------------------------------|
|--------11-11----------11-11----------11-11----------6/7\6--| 2x
|--9---9-x--x-----5---5-x--x-----7---7-x--x-----2---2-x-x-x--|
|--9---9-9--9-----5---5-9--9-----7---7-9--9-----2---2-4/5\4--|
|--9---9----------5---5----------7---7----------2---2--------|
					 

|------------------------------------------------------------|
|------------------------------------------------------------|
|-------11-11----------14-14----------11-11----------6/7\6*--| 1x
|--9---9-x--x-----5---5-x--x-----7---7-x--x-----2---2-x------|
|--9---9-9--9-----5---5-12-12----7---7-9--9-----2---2-4/5\4*-|
|--9---9----------5---5----------7---7----------2---2--------|

|------------------------------------------------------------|
|------------------------------------------------------------|
|--------11-11----------11-11----------11-11----------6/7\6--| 1x
|--9---9-x--x-----5---5-x--x-----7---7-x--x-----2---2-x-x-x--|
|--9---9-9--9-----5---5-9--9-----7---7-9--9-----2---2-4/5\4--|
|--9---9----------5---5----------7---7----------2---2--------|

Gtr 2 (Distortion)
(Riff 6) 
|------------------------------------------------------------|
|------------------------------------------------------------|
|------------------------------------------------------------| 4x
|--9---9----------5---5----------7---7----------2---2--------|
|--9---9----------5---5----------7---7----------2---2--------|
|--9---9----------5---5----------7---7----------2---2--------|
					 
Gtr 1 and 2
|--------|--------|
|--------|--------|
|--------|--------| (HARMONICS)
|-[*44444|*44444]-|  
|-[*44444|*44444]-| 
|-[*44444|*44444]-|
    dudud  ududu



Outro Chorus

Gtr 1 (Distortion)    1.__________________ 2.____________________
(Riff 4)
|---------------------|--------------------|---------------------|
|---------------------|--------------------|---------------------|
|-8-8-8-8-8-9-9-9-9-9-|1111111111-9-9-9-9-9|-6-6-6-6-6-4-4-4-4-4-|
|-x-x-x-x-x-x-x-x-x-x-|x-x-x-x-x--x-x-x-x-x|-x-x-x-x-x-x-x-x-x-x-|
|-6-6-6-6-6-7-7-7-7-7-|9-9-9-9-9--7-7-7-7-7|-4-4-4-4-4-2-2-2-2-2-|
|---------------------|--------------------|---------------------|


Gtr 2 (Distortion)    1.__________________ 2.____________________
(Riff 5)
|---------------------|--------------------|---------------------|
|---------------------|--------------------|---------------------|
|---------------------|--------------------|---------------------|
|-4-4-4-4-4-0-0-0-0-0-|5-5-5-5-5-2-2-2-2-2-|-7-7-7-7-7-2-2-2-2-2-|
|-2-2-2-2-2-0-0-0-0-0-|5-5-5-5-5-2-2-2-2-2-|-7-7-7-7-7-2-2-2-2-2-|
|-4-4-4-4-4-0-0-0-0-0-|5-5-5-5-5-2-2-2-2-2-|-7-7-7-7-7-2-2-2-2-2-|

Outro
Gtr 1 and 2          3x                1x
|----------------------------|---------------|
|----------------------------|---------------|
|----------------------------|---------------|
|--4-4-4-4-4-4-4--[4-4-4-4]--|-4-4-4-4-4-4-4-|
|--2-2-2-2-2-2-2--[4-4-4-4]--|-2-2-2-2-2-2-2-|
|--4-4-4-4-4-4-4--[4-4-4-4]--|-4-4-4-4-4-4-4-|
                   d u d u

That should do it for this awesome song.  Any comments and/or suggestions are welcomed.  Enjoy!
            
Hard to play? Try these video lessons and learn fast. | Correct




comments powered by Disqus
↑ Back to top | Tablatures and chords are parodies/interpretations of the original songs. You may use it for private study, scholarship, research or language learning purposes only