» » »

Linkin Park, Meteora - Lying From You Tabs (ver.1)

Artists:  A B C D E F G H I J K L M N O P Q R S T U V W X Y Z # 

Meteora - Lying From You Tabs (ver.1)

Linkin Park Tabs
 Rating:
4/5 (4 votes)
Meteora - Lying From You lessons Tabs too difficult? Try these video lessons and learn fast
                Drop D down half step ( Db Ab Db Gb Bb Eb)
* this intro sounds better than all the rest out here. Try it and you will see. :-)


INTRO
----------|------------------------------------
----------|------------------------------------
----------|------------------------------------
-2-2-2-2--|-0-0-2-0-1-0--3-2-1-0-6-------------
-2-2-2-2--|-0-0-2-0-1-0--3-2-1-0-6-------------
-2-2-2-2--|-0-0-2-0-1-0--3-2-1-0-6-------------
                                                                              
VERSE
----------------------------------
----------------------------------
----------------------------------
-2-2----7-7-----0-0--0-0-0--------
-2-2----5-5-----0-0--0-0-0--------
-2-2----5-5-----0-0--0-0-0--------
                                                                              

-2-2----7-7----0-0--0-0-0-----------------------------------------------------
-2-2----5-5----0-0--0-0-0-----------------------------------------------------
-2-2----5-5----0-0--0-0-0-----------------------------------------------------
                                                                              

-----------------11--11--11--11-----------------------------------------------
-2-2----7-7-7-7--x---x---x---x------------------------------------------------
-2-2----5-5-5-5--9---9---9---9------------------------------------------------
-2-2----5-5-5-5---------------------------------------------------------------
                                                                              
CHORUS
------11--11--11--11-7-7-7-7--9-9-9-9-----------------------------------------
-2-2--x---x---x---x--x-x-x-x--x-x-x-x--7-7-7-7-7---0-0-0-0-0------------------
-2-2--9---9---9---9--5-5-5-5--7-7-7-7--7-7-7-7-7---0-0-0-0-0------------------
-2-2-----------------------------------7-7-7-7-7---0-0-0-0-0------------------
                                                                              

-----11--11--11--11-7-7-7-7--9-9-9-9------------------------------------------
-5-5-x---x---x---x--x-x-x-x--x-x-x-x--7-7-7-7-7---0-0-0-0-0-------------------
-5-5-9---9---9---9--5-5-5-5--7-7-7-7--7-7-7-7-7---0-0-0-0-0-------------------
-5-5----------------------------------7-7-7-7-7---0-0-0-0-0-------------------
            
Submit corrections

comments powered by Disqus
↑ Back to top | Linkin Park Tabs for Meteora - Lying From You. Lyrics for acoustic guitar and electric guitar. Tablatures and chords are parodies/interpretations of the original songs. You may use it for private study, scholarship, research or language learning purposes only