» » »

Linkin Park, 04 - Lying From You Tabs (ver.4)

Artists:  A B C D E F G H I J K L M N O P Q R S T U V W X Y Z # 

04 - Lying From You Tabs (ver.4)

Linkin Park Tabs
 Rating:
4/5 (4 votes)
04 - Lying From You lessons Tabs too difficult? Try these video lessons and learn fast
1
                Linkin Park - Lying From You
Tuning (low to high) Db, Ab, Db, Gb, Bb, Eb  (C#, G#, C#, F#, A#, D#)

Intro 
Eb ---------------------------------------------------
Bb ---------------------------------------------------
Gb ---------------------------------------------------
Db --XXXX--0-2-1-0-3-2-1-0-6-6--0-2-1-0-3-2-1-0-6-6---
Ab --XXXX--0-2-1-0-3-2-1-0-6-6--0-2-1-0-3-2-1-0-6-6---
Db --XXXX--0-2-1-0-3-2-1-0-6-6--0-2-1-0-3-2-1-0-6-6---

Eb --------------------------------------------
Bb --------------------------------------------
Gb --------------------------------------------
Db --0-2-1-0-3-2-1-0-6-6--0-2-1-0-3-2-1-XXXX---
Ab --0-2-1-0-3-2-1-0-6-6--0-2-1-0-3-2-1-XXXX---
Db --0-2-1-0-3-2-1-0-6-6--0-2-1-0-3-2-1-XXXX---

Verse
Eb -------------------------------------------------------
Bb--------------------------------------------------------
Gb -------7-7---------------------7-7-7-7/9-9-9-9-9-9-9---
Db --2-2--7-7--0-0-0-0-0--X3-2-2--7-7-7-7/9-9-9-9-9-9-9---
Ab --2-2--5-5--0-0-0-0-0-----2-2--5-5-5-5/7-7-7-7-7-7-7---
Db --2-2--5-5--0-0-0-0-0-----2-2--5-5-5-5/7-7-7-7-7-7-7---

Chorus 
Part 1
Eb -----------------------------------------------------
Bb -----------------------------------------------------
Gb ------11-11-11-11\7-7-7-7/9-9--7-7-7-7-7-------------
Db --2-2--x--x--x--x-x-x-x-x-x-x--7-7-7-7-7-0-0-0-0-0---
Ab --2-2--9--9--9--9\5-5-5-5/7-7--5-5-5-5-5-0-0-0-0-0---
Db --2-2--------------------------5-5-5-5-5-0-0-0-0-0---

Part 2
Eb ------------------------------------------------------
Bb ------------------------------------------------------
Gb --5-5-11-11-11-11\7-7-7-7/9-9--9-9-9-9-9--------------
Db --5-5--x--x--x--x-x-x-x-x-x-x--9-9-9-9-9--0-0-0-0-0---
Ab --3-3--9--9--9--9\5-5-5-5/7-7--7-7-7-7-7--0-0-0-0-0---
Db -------------------------------7-7-7-7-7--0-0-0-0-0---

Play Part 1 again

Part 3
Eb ----------------------------------------------------
Bb ----------------------------------------------------
Gb --5-5-11-11-11-11\7-7-7-7/9-9--9-9-9-9-9------------
Db --5-5--x--x--x--x-x-x-x-x-x-x--9-9-9-9-9--0-0-XXXX--
Ab --3-3--9--9--9--9\5-5-5-5/7-7--7-7-7-7-7--0-0-XXXX--
Db -------------------------------7-7-7-7-7--0-0-XXXX--

Verse, Chorus 2 – Part 1, Part 2, Part 1 then:

Eb -------------------------------------------------
Bb -------------------------------------------------
Gb --5-5-11-11-11-11\7-7-7-7/9-9-----9--------------
Db --5-5--x--x--x--x-x-x-x-x-x-x-----9--X14---0-0---
Ab --3-3--9--9--9--9\5-5-5-5/7-7-----7--------0-0---
Db ----------------------------------7--------0-0---

Bridge = same as Intro

Chorus 3 – Part 1, Part 2, Part 1, end on:

Eb ----------------------------------------------------
Bb ----------------------------------------------------
Gb --5-5-11-11-11-11\7-7-7-7/9-9-----9-----------------
Db --5-5--x--x--x--x-x-x-x-x-x-x-----9--X14---0-0-XXX--
Ab --3-3--9--9--9--9\5-5-5-5/7-7-----7--------0-0-XXX--
D------------------------------------7--------0-0-XXX--
            
Submit corrections

comments powered by Disqus
↑ Back to top | Linkin Park Tabs for 04 - Lying From You. Lyrics for acoustic guitar and electric guitar. 1 Tablatures and chords are parodies/interpretations of the original songs. You may use it for private study, scholarship, research or language learning purposes only