>
 >
Iridescent 4

Iridescent 4 Guitar Tabs

Linkin Park - Iridescent 4 chords, tabs, tablatures, lyrics

Guitar lessons | Add/correct | Request | Top 50 tabs Artists:  A B C D E F G H I J K L M N O P Q R S T U V W X Y Z 0-9

Iridescent 4 Guitar Tabs – Linkin Park

CD, Sheet music, Poster

Do you like Iridescent 4? Share with your friends now
Bass TabsBass Tabs v2ChordsChords v2TabsTabs v2Tabs v3Tabs v4Tabs v5Tabs v6Ukulele
-------------------------------------------------------------------------------
                             Linkin Park - Iridescent
-------------------------------------------------------------------------------
THIS TAB IS AN ACOUSTIC COVER SO ITS NOT NOTE FOR NOTE PERFECT BUT SOUNDS GREAT! ENJOY
Tuning:STANDARD

Chords used:        C  F  Am  G

                 e|-0--0---0--3--|
                 B|-1--1---1--3--|
                 G|-0--2---2--0--| 
                 D|-2--3---2--0--|
                 A|-3--3---0--2--|
                 E|-----------3--|

(Note F chord is actually Fmaj7 but for the sake of the tab i'm calling it F!)

INTRO
(strumming pattern is just down strokes)
   Am              F
e|---------------------------------------------------------|
B|---------------------------------------------------------|
G|-2---2---2---2---2---2---2---2---------------------------| X2
D|-2---2---2---2-0-3---3---3---3-0-------------------------|
A|-----------0---------------3-----------------------------|
E|---------------------------------------------------------|

VERSE 1
On the cd this part has a strumming pattern of 1 downstroke per chord but i like to play 
it with 4 on the acoustic
 to stop it being a bit boring lol

   C               F
"standing in the wake...."
e|-0---0---0---0---0---0---0---0---------------------------|
B|-1---1---1---1---1---1---1---1---------------------------|
G|-0---0---0---0---2---2---2---2---------------------------| X2
D|-2---2---2---2---3---3---3---3---------------------------|
A|-3---3---3---3---3---3---3---3---------------------------|
E|---------------------------------------------------------|

   Am              F
"cataclysm raining down...."
e|-0---0---0---0---0---0---0---0---------------------------|
B|-1---1---1---1---1---1---1---1---------------------------|
G|-2---2---2---2---2---2---2---2---------------------------|
D|-2---2---2---2---3---3---3---3---------------------------|
A|-0---0---0---0---3---3---3---3---------------------------|
E|---------------------------------------------------------|

   Am              G
"you were there..."
e|-0---0---0---0---3---3---3---3---------------------------|
B|-1---1---1---1---3---3---3---3---------------------------|
G|-2---2---2---2---0---0---0---0---------------------------|
D|-2---2---2---2---0---0---0---0---------------------------|
A|-0---0---0---0---2---2---2---2---------------------------|
E|-----------------3---3---3---3---------------------------|

CHORUS

   C           F   Am          G
"Do you feel cold..."
   D   D   D DUD DUD   D   D DUD DU   <--STRUMMING PATTERN
e|-0---0---0-000-000---0---0-003-33------------------------|
B|-1---1---1-111-111---1---1-113-33------------------------|
G|-0---0---0-002-222---2---2-220-00------------------------|
D|-2---2---2-223-332---2---2-220-00------------------------| X3
A|-3---3---3-333-330---0---0-002-22------------------------|
E|-----------------------------3-33------------------------|

   C               G
"And let it go..."
strumming pattern all down strokes
e|-0---0---0---0---3---3---3---3---------------------------|
B|-1---1---1---1---3---3---3---3---------------------------|
G|-2---2---2---2---0---0---0---0---------------------------|
D|-3---3---3---3---0---0---0---0---------------------------|
A|-3---3---3---3---2---2---2---2---------------------------|
E|-----------------3---3---3---3---------------------------|

INTERLUDE

All down strokes again and played faster

   C               Am      G
e|-00003000100010000000000033333333------------------------|
B|-11111111111111111111111133333333------------------------|
G|-00000000000000002222222200000000------------------------| X2
D|-22222222222222222222222200000000------------------------|
A|-33333333333333330000000022222222------------------------|
E|-------------------------33333333------------------------|

A bit confusing lol but theres 16 strums of C , 8 of Am and 8 of G if thats any help. 
second time round
 just play and hold 1 G chord then ur into the verse. play it the chorus and the 
interlude again.
*the 3 note changes on the high E string (during C chord) are not essential but do make 
a BIG difference.
After the fast paced interlude your into a fast paced chorus which is similar but with an 
F chord in there

FAST CHORUS

   C           F   Am      G
"cold and lost..."
e|-00003000100000000000000033333333------------------------|
B|-11111111111111111111111133333333------------------------|
G|-00000000000022222222222200000000------------------------| X3
D|-22222222222233332222222200000000------------------------|
A|-33333333333333330000000022222222------------------------|
E|-------------------------33333333------------------------|

* 12 C chords , 4 F chords , 8 Am chords , 8 G chords

   F               G
e|-00000000000000003333333333333333------------------------|
B|-11111111111111113333333333333333------------------------|
G|-22222222222222220000000000000000------------------------|
D|-33333333333333330000000000000000------------------------|
A|-33333333333333332222222222222222------------------------|
E|-----------------3333333333333333------------------------|
*16 F chords and 16 G chords

play interlude part again

   C               Am      G
"Let it go oh oh oh, oh"
e|-00003000100010000000000033333333------------------------|
B|-11111111111111111111111133333333------------------------|
G|-00000000000000002222222200000000------------------------| X3
D|-22222222222222222222222200000000------------------------|
A|-33333333333333330000000022222222------------------------|
E|-------------------------33333333------------------------|

then play this once

   F               G
e|-00000000000000003333333333333333------------------------|
B|-11111111111111113333333333333333------------------------|
G|-22222222222222220000000000000000------------------------|
D|-33333333333333330000000000000000------------------------|
A|-33333333333333332222222222222222------------------------|
E|-----------------3333333333333333------------------------|

now play the fast paced chorus again

   C           F   Am      G
e|-00003000100000000000000033333333------------------------|
B|-11111111111111111111111133333333------------------------|
G|-00000000000022222222222200000000------------------------| X3
D|-22222222222233332222222200000000------------------------|
A|-33333333333333330000000022222222------------------------|
E|-------------------------33333333------------------------|
  
   F               G
e|-00000000000000003333333333333333------------------------|
B|-11111111111111113333333333333333------------------------|
G|-22222222222222220000000000000000------------------------|
D|-33333333333333330000000000000000------------------------|
A|-33333333333333332222222222222222------------------------|
E|-----------------3333333333333333------------------------|

Outro

   C               Am      G
e|-0-------3---1---0-------3---------|
B|-1---1-----1---1-1--1--1-3--3--3---|
G|-0-----0---------2-2--2--0-0--0----|x2  
D|-2-2-------------2-------0---------|
A|-3---------------0-------2---------|
E|-------------------------3---------|

and finish on a single C note.

ok guys thanks for giving my tab the time of day...feel free to give me 5 stars 
and a nice comment!! :P
************************************

| /   slide up
| \   slide down
| h   hammer-on
| p   pull-off
| ~   vibrato
| +   harmonic
| x   Mute note
| b   Bend
| pb  Pre-bend
| br  Bend release
| pbr Pre-bend release
| brb Bend release bend

************************************





Comments


Popular Linkin Park tabs & chords
No More Sorrow 2 Bass Tabs
Papercut 3 Bass Tabs
A Place For My Head Chords
Blackbirds Chords
Iridescent 1 Chords
Crawling 5 Tabs
In The End 2 Tabs
Lying From You 1 Tabs
Meteora Faint Tabs
One Step Closer Ukulele


Song lyrics



↑ Back to top | Tablatures and chords are parodies/interpretations of the original songs. You may use it for private study, scholarship, research or language learning purposes only
© 2014 AZChords.com Contact us | Privacy policy | DMCA | Add/correct tabs | Request tabs | Top 50 tabs