» » »

Linkin Park, In Between Tabs (ver.2)

Artists:  A B C D E F G H I J K L M N O P Q R S T U V W X Y Z # 

In Between Tabs (ver.2)

Linkin Park Tabs
 Rating:
4/5 (4 votes)
In Between lessons Tabs too difficult? Try these video lessons and learn fast
1
                ·=Intro=· (x2)
e|--------|
B|--------|
G|--------|
D|--------|
A|---4----|
E|-6---4--|

·=Verse 1 & 2=·
e|---------------------------------------------------------------------|
B|---------------------------------------------------------------------|
G|---------------------------------------------------------------------|
D|---------------------------------------------------------------------|
A|---4--------4------------------------4--------4----------------------|
E|-6---4----6---4-3-2-0-6-4-2-4-6----6---6----6---4-3-2-0-6-4-2-4-6-7--|

·=Chorus 01=·
e|-----------------------------------|
B|-----------------------------------|
G|-----------------------------------|
D|-----------------------------------|
A|-4-6------4-6------4-6-------------|
E|-----6-4------6-4------6-4--2-4-6--|

·=Verse 3=·
e|-----------------------------------|
B|-----------------------------------|
G|-----------------------------------|
D|-----------------------------------|
A|---4--------4----------------------|
E|-6---4----6---4-3-2-0-6-4-2-4-6-7--|

·=Chorus 02=·
e|------------------------------------------|
B|------------------------------------------|
G|------------------------------------------|
D|------------------------------------------|
A|-4-6------4-6------4-6--------------------|
E|-----6-4------6-4------6-4--2-4-6--2-4-6--|

·=Bridge=·
e|--------------------------|
B|--------------------------|
G|--------------------------|
D|--------------------------|
A|---6--------6--------6----|
E|-6---6----6---6----6---4--|

·=Chorus 03=·
e|--------------------------------------------------------------------|
B|--------------------------------------------------------------------|
G|--------------------------------------------------------------------|
D|--------------------------------------------------------------------|
A|-4-6------4-6------4-6----------1\4-6------4-6------4-6-------------|
E|-----6-4------6-4------6-4--2-4-------6-4------6-4------6-4--2-4-6--|

e|----------------|
B|----------------|
G|----------------|
D|----------------|
A|----------------|
E|--2-4-6--2-4-6--|
            
Submit corrections

comments powered by Disqus
↑ Back to top | Linkin Park Tabs for In Between. Lyrics for acoustic guitar and electric guitar. 1 Tablatures and chords are parodies/interpretations of the original songs. You may use it for private study, scholarship, research or language learning purposes only