>
 >
Hybrid Theoty Ep

Hybrid Theoty Ep Guitar Tabs

Linkin Park - Hybrid Theoty Ep chords, tabs, tablatures, lyrics

Guitar lessons | Add/correct | Request | Top 50 tabs Artists:  A B C D E F G H I J K L M N O P Q R S T U V W X Y Z 0-9

Hybrid Theoty Ep Guitar Tabs – Linkin Park

CD, Sheet music, Poster

Do you like Hybrid Theoty Ep? Share with your friends now
Tabs
SONGS INCLUDED:
Carousel
Step Up
And One
High Voltage
Part Of Me

BESIDES THOSE SONGS I TABBED 3 EXTRA SONGS:
My December
High Voltage(Remix)
It's Goin' Down

Song 1
Carousel
Tuning: Dropped D one half step down
C# G# C# F# A# D#

Intro:(x2)
x|--------------------------------------------------------------------------|x
x|--------------------------------------------------------------------------|x
x|-1--4--1--2---------------------------------------------------------------|x
x|-------------3------------------------------------------------------------|x
x|--------------------------------------------------------------------------|x
x|--------------------------------------------------------------------------|x

Verse:(x12)
x|--------------------------------------------------------------------------|x
x|--------------------------------------------------------------------------|x
x|----5-4-------------------------------------------------------------------|x
x|-2------3-2---------------------------------------------------------------|x
x|--------------------------------------------------------------------------|x
x|--------------------------------------------------------------------------|x

Chorus:(x4)
x|--------------------------------------------------------------------------|x
x|--------------------------------------------------------------------------|x
x|--------------------------------------------------------------------------|x
x|-22-22---33-33------------------------------------------------------------|x
x|-22-22---33-33------------------------------------------------------------|x
x|-22-22---33-33------------------------------------------------------------|x

Bridge(x4)
x|--------------------------------------------------------------------------|x
x|--------------------------------------------------------------------------|x
x|-(1)----(4)----(1)----(2)-------------------------------------------------|x
x|-22-22--22-22--22-22--22-22-(3)-------------------------------------------|x
x|-22-22--22-22--22-22--22-22-----------------------------------------------|x
x|-22-22--22-22--22-22--22-22-----------------------------------------------|x


Song 2
Step Up
Tuning: Dropped D one half step down
C# G# C# F# A# D#

Intro:
x|-5-5-5-3-5---1-------1-0-------------------------------------------------|x
x|------------------3-3-3--------0h1/5---0h1/6\5---------------------------|x
x|-------------------------------------------------------------------------|x
x|-------------------------------------------------------------------------|x
x|-------------------------------------------------------------------------|x
x|-------------------------------------------------------------------------|x
                                     
Verse
x|--------------------------------|x
x|--------------------------------|x
x|-0h1/5---0h1/6\5----------------|x
x|--------------------------------|x
x|--------------------------------|x
x|--------------------------------|x

Chorus x2
x|----------------------------------------------------------------------|x
x|----------------------------------------------------------------------|x
x|------10109--7777------------10109------------------------------------|x
x|-7777-10109--7777-5555--7777-10109--8-8-8-8---10101010----------------|x
x|-7777-8-8-7--5555-5555--7777-8-8-7--8-8-8-8---10101010----------------|x
x|-7777-------------5555--7777--------8-8-8-8---10101010----------------|x

Bridge
x|----|----------------------------------|----------------------------------|x
x|----|----------------------------------|----------------------------------|x
x|----|-------14----12-------14----12----|-------14----12-------------------|x
x|-14-|----14-------------14----------14-|----14-------------14-------------|x
x|----|-12-------12----13-------13-------|-12-------12----13----------------|x
x|----|----------------------------------|----------------------------------|x

Pre-Chorus
x|-----------------------------|---------------------------------------------|x
x|-----------------------------|---------------------------------------------|x
x|-2222-2--2222-2--3333-3333-3-|-2222-2--2222-2--3333-5555-5-----------------|x
x|-2222-2--2222-2--3333-3333-3-|-2222-2--2222-2--3333-5555-5-----------------|x
x|-0000-0--0000-0--1111-1111-1-|-0000-0--0000-0--1111-3333-3-----------------|x
x|-----------------------------|---------------------------------------------|x

End:
x|--------|x
x|--------|x
x|-0h1/5--|x
x|--------|x
x|--------|x
x|--------|x

   
Song 3
And One
Tuning: Dropped D one half step down
C# G# C# F# A# D#

Intro/Verse: x4
x|--------------------------------------------------------------------------|x
x|--------------------------------------------------------------------------|x
x|--------------------------------------------------------------------------|x
x|--------------------------------------------------------------------------|x
x|---------------*7---------------*12---------------*7----------------------|x
x|-00-0-088-8-88----00-0-088-8-88-----00-0-088-8-88----00-0-088-8-88--------|x

Chorus
x|--------------------------------------------------------------------------|x
x|--------------------------------------------------------------------------|x
x|----------------------10--10-10-1010--------------------------------------|x
x|-0--0-00--0-0-008--8-810--10-10-1010-\-3--3-33--3-3-33-\-1--1-11--1-1-11--|x
x|-0--0-00--0-0-008--8-88---8--8--8-8--\-3--3-33--3-3-33-\-1--1-11--1-1-11--|x
x|-0--0-00--0-0-008--8-88---8--8--8-8--\-3--3-33--3-3-33-\-1--1-11--1-1-11--|x

Bridge:
x|--------------------------------------------------------------------------|x
x|--------6---5-----------3---1---------------------------------------------|x
x|-------------------------------------------0------------------0-----------|x
x|-0----0---0---0---0---3---3---3---3-----3-----3---3-------2-----2---2-----|x
x|-0--------------0---1-----------1-----3---3-----3-------3---3-----3-------|x
x|-0--0-------------------------------3-----------------2-------------------|x


Song 4
High Voltage
Tuning: Dropped D one half step down
C# G# C# F# A# D#

Intro x6
x|--------------------------------------------------------------------------|x
x|--------------------------------------------------------------------------|x
x|--------------------------------------------------------------------------|x
x|--3-3--6--5--4--3---------------------------------------------------------|x
x|--------------------------------------------------------------------------|x
x|--------------------------------------------------------------------------|x

Verse x8
x|--------------------------------------------------------------------------|x
x|--------------------------------------------------------------------------|x
x|--------------------------------------------------------------------------|x
x|--3-3-----1--4--1---------------------------------------------------------|x
x|-------4------------------------------------------------------------------|x
x|--------------------------------------------------------------------------|x    

Chorus x2
x|--------------------------------------------------------------------------|x
x|--------------------------------------------------------------------------|x
x|--------------------------------------------------------------------------|x
x|--3-3--6--5--4--3---------------------------------------------------------|x
x|--------------------------------------------------------------------------|x
x|--------------------------------------------------------------------------|x

Verse
Chorus x2

Song 5
Part Of Me
Tuning: Dropped D one half step down
C# G# C# F# A# D#

x|-----------------------------|x
x|-----------------------------|x
x|-----------------------------|x
x|-----------------------------|x
x|-----------7-7-----7777--7---|x
x|-6-6--6-6------6-6-----------|x

Verse x4
x|---------------------8---8------------------------------------------------|x
x|-10--10--10--10--------------8---8---10--10--10--10--12--12---8--8--------|x
x|----9---9---9---9/10--10--10--10--9-----9---9---9---9---9---9---9--9------|x
x|--------------------------------------------------------------------------|x
x|--------------------------------------------------------------------------|x
x|--------------------------------------------------------------------------|x

Pre-chorus x4
x|--------------------------------------------------------------------------|x
x|--------------------------------------------------------------------------|x
x|--------------------------------------------------------------------------|x
x|-3-2--3-2--3-2--3-2-22-3--5-----------------------------------------------|x
x|-3-2--3-2--3-2--3-2-22-3--5-----------------------------------------------|x
x|-3-2--3-2--3-2--3-2-22-3--5-----------------------------------------------|x
   
Chorus
x|--------------------------------------------------------------|x
x|--------------------------------------------------------------|x
x|----------9-9-9-9-999------9-9------------------------------4-|x
x|6-6--6-6--9-9-9-9-999--6-6-9-9--6-6--6-6--4-4--4-4-44-9-9-4-4-|x
x|6-6--6-6--7-7-7-7-777--6-6-7-7--6-6--6-6--4-4--4-4-44-9-9-4-2-|x
x|6-6--6-6---------------6-6------6-6--6-6--4-4--4-4-44-9-9-4---|x


x|--------------------------------------------------------------|x
x|--------------------------------------------------------------|x
x|----------9-9-9-9-999------9-9------------------------4-4---4-|x
x|6-6--6-6--9-9-9-9-999--6-6-9-9--6-6--6-6--1-1--1-1-11-4-4-1-4-|x
x|6-6--6-6--7-7-7-7-777--6-6-7-7--6-6--6-6--1-1--1-1-11-2-2-1-2-|x
x|6-6--6-6---------------6-6------6-6--6-6--1-1--1-1-11-----1---|x
                                                  
##########################################################################################
##########################################################################################
##########################################################################################
##########################################################################################
##########################################################################################
       X-TRA SONGS!!!!!!!!!

My December
Tuning: Dropped D one half step down
C# G# C# F# A# D#

x|--------------------------------------------------------------------------|X
x|--------------------------------------------------------------------------|X
x|---0---0---0---0---0---0---0---0------------------------------------------|X
x|-2---4---2---4---0---4---0---4--------------------------------------------|X
x|--------------------------------------------------------------------------|X
x|--------------------------------------------------------------------------|X

Guitar Line
x-----------|---------------------------x
x-----------|---------------------------x
x-12--12--7-|-12--12--------------------x
x-----------|---------7-----------------x
x-----------|---------------------------x
x-----------|---------------------------x

High Voltage(remix)
Tuning: Dropped D one half step down
C# G# C# F# A# D#
This song doesn't use guitar but i tabbed a little part
(background piano part)
x|-----------9--------------------------------------------------------------|X
x|-9--12--11---12--11--9--8--9----------------------------------------------|X
x|--------------------------------------------------------------------------|X
x|--------------------------------------------------------------------------|X
x|--------------------------------------------------------------------------|X
x|--------------------------------------------------------------------------|X

It's Goin' Down
Tuning: Dropped D one half step down
C# G# C# F# A# D#
featuring X-ECUTIONERS

-|---|-
-|---|- Volume Up
-|---|-
-|-0-|-
-|-0-|-
-|-0-|-

-|-----------------------------------------------------|-
-|-----------------------------------------------------|-
-|----------------------------------------------5----5-|-
-|-0--0--0-0--0-0-------------------0--0--0---0-5--0-5-|-
-|-0--0--0-0--0-0-------------------0--0--0---0-3--0-3-|-
-|-0--0--0-0--0-0--*2.7--*2.7-*2.7--0--0--0---0----0---|-





Comments


Popular Linkin Park tabs & chords
1stp Klosr Bass Tabs
Breaking The Habit 5 Bass Tabs
Forgotten 6 Bass Tabs
A 06 Update Tabs
Cure For The Itch Tabs
Hit The Floor Tabs
Met--Hit The Floor Tabs
One Step Closer 12 Tabs
P5hng Me A Wy Tabs
Hands Held High Ukulele


Song lyrics



↑ Back to top | Tablatures and chords are parodies/interpretations of the original songs. You may use it for private study, scholarship, research or language learning purposes only
© 2014 AZChords.com Contact us | Privacy policy | DMCA | Add/correct tabs | Request tabs | Top 50 tabs