» » »

Linkin Park, Hybrid Theory - 03 - With You Tabs (ver.1)

Artists:  A B C D E F G H I J K L M N O P Q R S T U V W X Y Z # 

Hybrid Theory - 03 - With You Tabs (ver.1)

Linkin Park Tabs
Rating:
0/5 (0 votes)
Hybrid Theory - 03 - With You lessons Tabs too difficult? Try these video lessons and learn fast
                Intro/Pre-Chorus
E|----------|-----------------|
B|----------|-----------------|
G|----------|-----------------|
D|----------|-----------------|
A|-2--2-2-3-|-3-2--2--2-2-----|
E|-2--2-2-3-|-3-2--2--2-2-----|
B|-0--0-0-1-|-1-0--0--0-0--|

  Chorus
E|------|------|------|------|
B|------|------|------|------|
G|------|------|------|------|
D|------|-9----|-7----|------|
A|-7----|-9----|-5----|-5----|
E|-7----|-7----|-3----|-5----|
B|-5----|-0----|------|-3----|

  Verse (Clean)
E|-----------------|-----------------|------------|
B|--------------|-----------|---------|
G|--------|-----------|---------|
D|-----------------|-----------------|---------|
A|-----------------|-----------------|------------|
E|-----------------|-----------------|------------|
B|-----------------|-----------------|------------|
            
Submit corrections

comments powered by Disqus
↑ Back to top | Linkin Park Tabs for Hybrid Theory - 03 - With You. Lyrics for acoustic guitar and electric guitar. Tablatures and chords are parodies/interpretations of the original songs. You may use it for private study, scholarship, research or language learning purposes only