» » »

Linkin Park, Fainted Bass tabs (ver.1)

Artists:  A B C D E F G H I J K L M N O P Q R S T U V W X Y Z # 

Fainted Bass tabs (ver.1)

Linkin Park Tabs
Rating:
0/5 (0 votes)
Fainted lessons Tabs too difficult? Try these video lessons and learn fast
                Tuning: 5 String bass tuned down one half step
low to high: (Bb,Eb,Ab,Db,Gb)

(0:15)
Gb-------------------------------------------------------------
Db-------------------------------------------------------------
Ab-------------------------------------------------------------
Eb------------------1-1-1-1-1-1--6-6-6-6-6-6-6--3-3-3-5-5------
Bb-3-3-3-3-3-3-3--6---------------------------------------6-6--

1st Verse  (0:29)
Gb-------r--
Db-------e--
Ab-------s--
Eb-------t--
Bb-3--3-----

(0:43)
Gb-------r---------------------
Db-------e---------------------
Ab-------s---------------------
Eb-------t-----6--6------------
Bb-3--3------------------1--1--

Chorus  (0:50, 1:30, 2:09)
Gb-------------------------------------------------------------
Db-------------------------------------------------------------  X2
Ab-------------------------------------------------------------
Eb------------------1-1-1-1-1-1--6-6-6-6-6-6-6--3-3-3-5-5------
Bb-3-3-3-3-3-3-3--6---------------------------------------6-6--

Gb------------------
Db------------------
Ab------------------
Eb------------------
Bb-6-6-6-6-6-6-6-6--

2nd Verse  (1:07)
Gb-------r--
Db-------e--
Ab-------s--
Eb-------t--
Bb-3--3-----

(1:21)
Gb-------r--
Db-------e--
Ab-------s--
Eb-------t--
Bb-3--3-----

Gb-----------------
Db-----------------
Ab-----------------
Eb-6--6------------
Bb-----------1--1--

Bridge  (1:46)
Gb--------------------------------
Db--------------------------------  X4
Ab--------------------------------
Eb---5----------------5-----------
Bb-3---6-5--6-5--3--3---6-5--6-5--

(2:23)
Gb-------------------------------------------------------------
Db-------------------------------------------------------------
Ab-------------------------------------------------------------
Eb------------------1-1-1-1-1-1--6-6-6-6-6-6-6--3-3-3-5-5------
Bb-3-3-3-3-3-3-3--6---------------------------------------6-6--

Gb------------------r--
Db------------------e--
Ab------------------s--
Eb------------------t--
Bb-6-6-6-6-6-4-4-4-----

Thats it, Enjoy!
GW August 2003
Please rate this tab, Thanks.
            
Submit corrections

comments powered by Disqus
↑ Back to top | Linkin Park Bass for Fainted. Lyrics for acoustic guitar and electric guitar. Tablatures and chords are parodies/interpretations of the original songs. You may use it for private study, scholarship, research or language learning purposes only