» » »

Easier To Run Tabs

Artists:  A B C D E F G H I J K L M N O P Q R S T U V W X Y Z # 

Easier To Run Tabs

(ver. 3)
Linkin Park Tabs
 Rating:
4/5 (4 votes)
    Easier To Run lessons Tabs too difficult? Try these video lessons and learn fast
                Tuning: C# G# C# F# Bb Eb

<> - Harmonic
~ - Let ring

Intro/Verse Play 4x (Play Clean)
|-----------------------------------------------------------------
|-----------------------------------------------------------------
|-----------------------------------------------------------------
|-<3>-<3>--<5>--<7>~----<7>-<7>--<5>--<3>~------------------------
|-----------------------------------------------------------------
|-----------------------------------------------------------------

Chorus Play 2x (Play Distorted)
|-----------------------------------------------------------------
|-----------------------------------------------------------------
|-----------------------------------------------------------------
|-1--1-1~---3--3-3~---5--5-5~---2--2-2~---------------------------
|-1--1-1~---3--3-3~---5--5-5~---2--2-2~---------------------------
|-1--1-1~---3--3-3~---5--5-5~---2--2-2~---------------------------

Verse Play 9x (Play Clean)
|-----------------------------------------------------------------
|-----------------------------------------------------------------
|-----------------------------------------------------------------
|-<3>-<3>--<5>--<7>~----<7>-<7>--<5>--<3>~------------------------
|-----------------------------------------------------------------
|-----------------------------------------------------------------

Chorus Play 2x (Play Distorted)
|-----------------------------------------------------------------
|-----------------------------------------------------------------
|-----------------------------------------------------------------
|-1--1-1~---3--3-3~---5--5-5~---2--2-2~---------------------------
|-1--1-1~---3--3-3~---5--5-5~---2--2-2~---------------------------
|-1--1-1~---3--3-3~---5--5-5~---2--2-2~---------------------------
Verse Play 8x (Play Clean)
|-----------------------------------------------------------------
|-----------------------------------------------------------------
|-----------------------------------------------------------------
|-<3>-<3>--<5>--<7>~----<7>-<7>--<5>--<3>~------------------------
|-----------------------------------------------------------------
|-----------------------------------------------------------------

Chorus Play 6x (Play Distorted, also played with Flanger)
|-----------------------------------------------------------------
|-----------------------------------------------------------------
|-----------------------------------------------------------------
|-1--1-1~---3--3-3~---5--5-5~---2--2-2~---------------------------
|-1--1-1~---3--3-3~---5--5-5~---2--2-2~---------------------------
|-1--1-1~---3--3-3~---5--5-5~---2--2-2~---------------------------

Outro 1x (Play Distorted)
|-----------------------------------------------------------------
|-----------------------------------------------------------------
|-----------------------------------------------------------------
|--<9>~-----------------------------------------------------------
|-----------------------------------------------------------------
|-----------------------------------------------------------------
            
Submit corrections

↑ Back to top | Linkin Park Tabs for Easier To Run. Lyrics for acoustic guitar and electric guitar. Tablatures and chords are parodies/interpretations of the original songs. You may use it for private study, scholarship, research or language learning purposes only