» » »

Easier O Run Tabs (ver.1)

Artists:  A B C D E F G H I J K L M N O P Q R S T U V W X Y Z # 

Easier O Run Tabs (ver.1)

Linkin Park
Rating:
0/5 (0 votes)

Tabs too difficult? Try these video lessons and learn fast.
                Eb|--------------|-----------------------|----------------------|-------------------|
Bb|--------------|-----------------------|----------------------|-------------------|
Gb|--------------|-----------------------|----------------------|-------------------|
Db|-8--13--8--16-|-16----15----8----6----|-8---13---8---13------|-16---15----8----6-|
Ab|--------------|-----------------------|----------------------|-------------------|
Db|--------------|-----------------------|----------------------|-------------------|

Eb|--------------|-----------------------|---------------------|--------------------|
Bb|--------------|-----------------------|---------------------|--------------------|
Gb|--------------|-----------------------|---------------------|--------------------|
Db|-1---1--1-----|-4-------4-------4-----|-6-------6------6----|-3------3------3----|
Ab|-1---1--1-----|-2-------2-------2-----|-4-------4------4----|-1------1------1----|
Db|-1---1--1-----|-4-------4-------4-----|-6-------6------6----|-3------3------3----|

the only part where it chances is at 2:18 (song time) where it goes
Eb|--------------|-----------------------|----------------------|-------------------|
Bb|--------------|-----------------------|----------------------|-------------------|
Gb|--------------|-----------------------|----------------------|-------------------|
Db|-4--6---8-----|-3-------4-------6-----|-6-------6------------|-------------------|
Ab|-2--4---6-----|-1-------2-------4-----|-4-------4------------|-------------------|
Db|-4--6---8-----|-3-------4-------6-----|-6-------6------------|-------------------|
            
Tabs too difficult? Try these video lessons and learn fast.




comments powered by Disqus
↑ Back to top | Tablatures and chords are parodies/interpretations of the original songs. You may use it for private study, scholarship, research or language learning purposes only