» » »

02 - Don Stay Tabs (ver.2)

Artists:  A B C D E F G H I J K L M N O P Q R S T U V W X Y Z # 

02 - Don Stay Tabs (ver.2)

Linkin Park
Rating:
0/5 (0 votes)

Hard to play? Try these video lessons and learn fast.
                This is and excellent song to play. Brad Delson has his guitar tuned way down,
 but my instructor and I found a way to play it with standard tuning.
 Its quite easy and simple to learn, the only hard part is getting the struming
 down to make it sound exactly like the real thing.
 Well, here it is. Its all inverted power chords,
 so its quite simple, have fun!

For the intro, you can play it the same as the verse, or just use the top notes, like this:
E------------------------------------------------------------------------------
B------------------------------------------------------------------------------
G------------------------------------------------------------------------------
D------------------------------------------------------------------------------
A----------------------4-------------------------------------5------4--4--4---
E---2-----2----2-----------5--5--5-----7--7--7--------------------------------

Verses
(distorted)
E-------------------------------------------------------------------------------
B-------------------------------------------------------------------------------
G-------------------------------------------------------------------------------
D------------------------4----------------------------------5-----4--4--4-------
A---2-----2----2---------4------5--5--5-----7--7--7---------5-----4--4--4-------
E---2-----2----2----------------5--5--5-----7--7--7-----------------------------

Now for the chorus:
E-----------------------------------------------------------------------------
B-----------------------------------------------------------------------------
G-----------------------------------------------------------------------------
D----------4-----5-----7-----2--------4---------------------------------------
A----2-----4-----5-----7-----2--------4-----5-----3-----2---------------------
E----2--------------------------------------5-----3-----2---------------------

This is an interlude  where chester sings in his pyshco voice.
E--------------------------------------------------------------------------
B--------------------------------------------------------------------------
G------------------------------------2--2--2--2--/5------------------------
D--------------------------------------------------------------------------
A----2-----2-----3-----2---------------------------------------------------
E----2-----2-----3-----2---------------------------------------------------

Well thats it, if i missed something sorry, its my first tab.

*this also sounds really good with two guitars playing it.
            
Hard to play? Try these video lessons and learn fast. | Correct




comments powered by Disqus
↑ Back to top | Tablatures and chords are parodies/interpretations of the original songs. You may use it for private study, scholarship, research or language learning purposes only