» » »

Cure For The Itch Tabs (ver.1)

Artists:  A B C D E F G H I J K L M N O P Q R S T U V W X Y Z # 

Cure For The Itch Tabs (ver.1)

Linkin Park
Rating:
0/5 (0 votes)

Hard to play? Try these video lessons and learn fast.
                Drop A tuning

 B--22--22--22--18--18--18--15--15--15--11--11------]
Gb--20--20--20--18--18--18--15--15--15--11--11--15--]
 D----------------------------------------------12--]
 A--------------------------------------------------]
 E--------------------------------------------------]
 A--------------------------------------------------]

[--10-------------------10--------------13--] x2
[------------11----8--------------11--------]
[--7--------------------7---------------10--]
[------------8-----5--------------8---------]
[-------------------------------------------]
[-------------------------------------------]

--11--------13----18----15--------13----11----10------------------]
---------------------------------------------------------11----8--]
--8---------10----15----12--------10----8-----7-------------------]
---------------------------------------------------------8-----5--]
            
Hard to play? Try these video lessons and learn fast. | Correct




comments powered by Disqus
↑ Back to top | Tablatures and chords are parodies/interpretations of the original songs. You may use it for private study, scholarship, research or language learning purposes only