» » »

Crawling In My Skin Tabs (ver.1)

Artists:  A B C D E F G H I J K L M N O P Q R S T U V W X Y Z # 

Crawling In My Skin Tabs (ver.1)

Linkin Park
Rating:
0/5 (0 votes)

Hard to play? Try these video lessons and learn fast.
                "
there are two guitars in this song as ya might have figured out, listin to the song to get Brads rythem ,I know the songs name is crawling by the way.

  

DJ Intro(Guitar 1 only)(clean)

Eb|-----20--17-----------------------------------------|
Bb|--------------20--18-17--18-------------------------|
Gb|--19------------------------------------------------|
Db|----------------------------------------------------|
Ab|----------------------------------------------------|
Db|----------------------------------------------------|

Pre-Chorus Fill(Guitar 1 only)(distortion)

Eb|----------------------------------------------------|
Bb|----------------------------------------------------|
Gb|----------------------------------------------------|
Db|--10-(10)-(10)-(10)-(10)-----------------------------|
Ab|--10-(10)-(10)-(10)-(10)-----------------------------|
Db|--10-(10)-(10)-(10)-(10)-----------------------------|

Chorus (Guitar 1)Brad

Eb|----------------------------------------------------|
Bb|----------------------------------------------------|
Gb|--11-11-11-11-11--5-5-5-5-5--10-10-10-10-10--9-9-9-----|
Db|--x--x--x--x--x---x-x-x-x-x--x--x--x--x--x---x-x-x-----|
Ab|--9--9--9--9--9---3-3-3-3-3--8--8--8--8--8---7-7-7-----|
Db|----------------------------------------------------|

Eb|----------------------------------------------------|
Bb|----------------------------------------------------|
Gb|--9-9--12-12-12-12-12--------------------------------|
Db|--x-x--x--x--x--x--x---------------------------------|
Ab|--7-7--10-10-10-10-10--------------------------------|
Db|----------------------------------------------------|

Chorus (Guitar 2)mike

Eb|----------------------------------------------------|
Bb|----------------------------------------------------|
Gb|----------------------------------------------------|
Db|--0-----8-----3-----/10-----10-----7----------------|
Ab|--0-----8-----3-----/10-----10-----7----------------|
Db|--0-----8-----3-----/10-----10-----7----------------|

Chorus 2(Guitar 1)Brad

Eb|----------------------------------------------------|
Bb|----------------------------------------------------|
Gb|--11-11-11-11-11-12-12-12-12-12-10-10-10-10-10------|
Db|--x--x--x--x--x--x--x--x--x--x--x--x--x--x--x-------|
Ab|--9--9--9--9--9--10-10-10-10-10-8--8--8--8--8-------|
Db|----------------------------------------------------|

Eb|----------------------------------------------------|
Bb|----------------------------------------------------|
Gb|--9-9-9-9-9-12-12-12-12-12--------------------------|
Db|--x-x-x-x-x-x--x--x--x--x---------------------------|
Ab|--7-7-7-7-7-10-10-10-10-10--------------------------|
Db|----------------------------------------------------|

Chorus 2(Guitar 2)Mike

Eb|----------------------------------------------------|
Bb|----------------------------------------------------|
Gb|----------------------------------------------------|
Db|--0-----8-----3-----/10-----10-----7----------------|
Ab|--0-----8-----3-----/10-----10-----7----------------|
Db|--0-----8-----3-----/10-----10-----7----------------|
"            
Hard to play? Try these video lessons and learn fast. | Correct




comments powered by Disqus
↑ Back to top | Tablatures and chords are parodies/interpretations of the original songs. You may use it for private study, scholarship, research or language learning purposes only