» » »

Linkin Park, Crawlinge Tabs (ver.1)

Artists:  A B C D E F G H I J K L M N O P Q R S T U V W X Y Z # 

Crawlinge Tabs (ver.1)

Linkin Park Tabs
 Rating:
4/5 (4 votes)
Crawlinge lessons Tabs too difficult? Try these video lessons and learn fast
1
                Tuning:Standard E

please dont start b**chin bout this tab bein in std e,i know linkin park doesnt use this tunine aight.i play an acoustic so thats why i use it.

Intro:

E---7-4-2------------
B-2--------5-4-5-4---
G--------------------
D--------------------
A--------------------
E--------------------

chorus:

E------------------------------------------------------------------------------
B------------------------------------------------------------------------------
G------------------------------------------------------------------------------
D-----------------------------------------9-9-9-9-9-9-9-9----------------------
A-11-11-11-11-11-11-11-11-7-7-7-7-7-7-7-7-7-7-7-7-7-7-7-7--9-9-9-9-9-9-9-9---6-
E-9--9--9--9--9--9--9--9--5-5-5-5-5-5-5-5------------------7-7-7-7-7-7-7-7---4-

thats all there is to it.send comments,thanx etc to:
            
Submit corrections

comments powered by Disqus
↑ Back to top | Linkin Park Tabs for Crawlinge. Lyrics for acoustic guitar and electric guitar. 1 Tablatures and chords are parodies/interpretations of the original songs. You may use it for private study, scholarship, research or language learning purposes only