» » »

Linkin Park, Crawling 2 Guitars Tabs (ver.1)

Artists:  A B C D E F G H I J K L M N O P Q R S T U V W X Y Z # 

Crawling 2 Guitars Tabs (ver.1)

Linkin Park Tabs
 Rating:
4/5 (4 votes)
Crawling 2 Guitars lessons Tabs too difficult? Try these video lessons and learn fast
                Linkin Park
Crawlin

This is for all u retards who truly believe there is only one guitar in this song

both brad and mike play in this song, both usin drop d tuning

it goes like this

Mike

|---------------------|
|---------------------|
|-7-------------------|
|-7---8---3---10---7--|
|-5---8---3---10---7--|
|-----8---3---10---7--|

Brad

|-----------------------|
|-----------------------|
|-11---5---10---9---12--|
|--x---x----x---x----x--|
|--9---3----8---7---10--|
|-----------------------|

There is a struming pattern for brad's part but it's easy enough to figure. It's just constsnt strumming more or less.
This is played at each chorus.

The outro is slighly different. It goes like this

Mike

|-----------------------|
|-----------------------|
|-----------------------|
|-10-10-10-10-10-10--7--|
|-10-10-10-10-10-10--7--|
|-10-10-10-10-10-10--7--|

Brad

|------------------|
|------------------|
|-9-9-9-9-9-9--12--|
|-x-x-x-x-x-x---x--|
|-7-7-7-7-7-7--10--|
|------------------|

wasn't that easy.

You know what, cos im in a gd mood, ill do the correct intro, and the lyrics too.

Mr Hahn Intro

|--20-17---------------|
|-------20-18-17-18----|
|------------------19--|
|----------------------|
|----------------------|
|----------------------|

Lyrics

chorus
Crawling in my skin, these wounds they will not heal, fear is how I fall, confusing what is real

verse
There's something inside me that pulls beneath the surface 
Consuming… Confusing…
This lack of self-control I fear is never ending, controlling, I can't seem…

Pre-Chorus
To find my self again, these walls are closing in 
without a sense of confidence and I'm convinced that there's just too much pressure to take
I've felt this way before, so insecure…

chorus

verse
Discomfort, endlessly has pulled itself upon me, distracting, reacting…
Against my will I stand beside my own reflection
It's haunting how I can't seem…

Pre-Chorus

Chorus 

There's something inside me that pulls beneath the surface, consuming…
Confusing what is real…
This lack of self-control I fear is never ending, controlling…
Confusing what is real…
            
Submit corrections

comments powered by Disqus
↑ Back to top | Linkin Park Tabs for Crawling 2 Guitars. Lyrics for acoustic guitar and electric guitar. Tablatures and chords are parodies/interpretations of the original songs. You may use it for private study, scholarship, research or language learning purposes only