>
 >
Castle Of Glass

Castle Of Glass Guitar Tabs

Linkin Park - Castle Of Glass chords, tabs, tablatures, lyrics

Guitar lessons | Add/correct | Request | Top 50 tabs Artists:  A B C D E F G H I J K L M N O P Q R S T U V W X Y Z 0-9

Castle Of Glass Guitar Tabs – Linkin Park

CD, Sheet music, Poster

Do you like Castle Of Glass? Share with your friends now
Bass TabsBass Tabs v2ChordsChords v2Chords v3Chords v4Chords v5TabsTabs v2Tabs v3Tabs v4Tabs v5Ukulele
-------------------------------------------------------------------------------
                             CASTLE OF GLASS- Linkin Park
------------------------------------------------------------------------------

Heyy guys. Another fantastic song from the amazing "Living Things", "Castle of Glass". I 
loved this song, Folk Rock genre. And the chords are quite easy, so yeah. :)

Tuning: Standard

Note: Strumming pattern is usually the same throughout the whole song, its- down,down,up;up,down,
up

Intro (Played on the piano I think, but on guitar, it would sound like this-)
e|------------------------------------------------------------------------|
B|------------------------------------------------------------------------|
G|------------------------------------------------------------------------|
D|------------------------------------------------------------------------|
A|---4--4-4-4-6--7-7--6-6-4--2--2-2-4-------------------------------------|
E|-------------------------------------2--2-2-4---------------------------|


e|------------------------------------------------------------------------|
B|------------------------------------------------------------------------|
G|------------------------------------------------------------------------|
D|------------------------------------------------------------------------|
A|---------------------------------------------------------------4--|
E|----5--5-5--5-5-5--5--5-5--5-5-5--7--7-7--7-7-7--7--7-7--7-7-7----------|

Take me down to the river bend,
Take me down to the fighting end,
Wash the poison from off my skin
Show me how to be whole again

Fly me up on a silver wing
Past the black where the sirens sing
Warm me up in a nova's glow
And drop me down to the dream below

(Chorus)
Cause I'm only a crack in this castle of glass
Hardly anything there for you to see.
For you to see


Note- Its a soft, and cleanish patch

e|-----------------------------------------------|
B|-----------------------------------------------|
G|-6--666--8--9-9--8-8--6--4--4444--6------------|
D|-6--666--8--9-9--8-8--6--4--4444--6--4--444--6-|
A|-4--444--6--7-7--6-6--4--2--2222--4--4--444--6-|
E|-------------------------------------2--222--4-|



Bring me home in a blinding dream
Through the secrets that I have seen

e|-----------------------------------|
B|-----------------------------------|
G|--6-6-6--666-----------------------|
D|--6-6-6--666-----------------------|
A|--4-4-4--444-----------------------|
E|-----------------------------------|


Wash the sorrow from off my skin

e|-----------------------------------|
B|-----------------------------------|
G|--8-8-8--888-----------------------|
D|--8-8-8--888-----------------------|
A|--6-6-6--666-----------------------|
E|-----------------------------------|


And show me how to be whole again
e|-----------------------------------|
B|-----------------------------------|
G|--6-6-6--666-------66666666--------|
D|--6-6-6--666---66666666--------|
A|--4-4-4--444-------44444444--------|
E|-----------------------------------|

Cause I'm only a crack in this castle of glass
Hardly anything there for you to see.
For you to see

e|----------------------------------------------------|
B|----------------------------------------------------|
G|--9-9-9--999-------8-8-8--888-------9-9-9--999------|
D|--9-9-9--999---8-8-8--888---9-9-9--999--|
A|--7-7-7--777-------6-6-6--666-------7-7-7--777------|
E|----------------------------------------------------|

e|----------------------------------|
B|----------------------------------|
G|--9-9-9--999-------8-8-8--888-----|
D|--9-9-9--999---8-8-8--888-|
A|--7-7-7--777-------6-6-6--666-----|
E|----------------------------------|



e|-----------------------------------------------|
B|-----------------------------------------------|
G|-6--666--8--9-9--8-8--6--4--4444--6------------|
D|-6--666--8--9-9--8-8--6--4--4444--6--4--444--6-|
A|-4--444--6--7-7--6-6--4--2--2222--4--4--444--6-|
E|-------------------------------------2--222--4-|

e|-----------------------------------------------|
B|-----------------------------------------------|
G|-6--666--4-------------------------------------|
D|-6--666--4---------------------------------|
A|-4--444--2-------------------------------------|
E|-----------------------------------------------|

e|-----------------------------------------------|
B|-----------------------------------------------|
G|-6--666--8--9-9--8-8--6--4--4444--6------------|
D|-6--666--8--9-9--8-8--6--4--4444--6--4--444--6-|
A|-4--444--6--7-7--6-6--4--2--2222--4--4--444--6-|
E|-------------------------------------2--222--4-|

e|-----------------------------------------------|
B|-----------------------------------------------|
G|-6--666--4---------66666666--------------------|
D|-6--666--4-----66666666--------------------|
A|-4--444--2---------44444444--------------------|
E|-----------------------------------------------|

Cause I'm only a crack in this castle of glass
Hardly anything else I need to be


Cause I'm only a crack in this castle of glass
Hardly anything there for you to see.
For you to see
For you to see


e|----------------------------------------------------|
B|----------------------------------------------------|
G|--9-9-9--999-------8-8-8--888-------9-9-9--999------|
D|--9-9-9--999---8-8-8--888---9-9-9--999--|
A|--7-7-7--777-------6-6-6--666-------7-7-7--777------|
E|----------------------------------------------------|

e|------------------------------------------|
B|------------------------------------------|
G|--9-9-9--999-------8-8-8--888------8-8-8-8|
D|--9-9-9--999---8-8-8--888--8-8-8-8|
A|--7-7-7--777-------6-6-6--666------6-6-6-6|
E|------------------------------------------|



e|-----------------------------------------------|
B|-----------------------------------------------|
G|-6--666--8--9-9--8-8--6--4--4444--6------------|
D|-6--666--8--9-9--8-8--6--4--4444--6--4--444--6-|
A|-4--444--6--7-7--6-6--4--2--2222--4--4--444--6-|
E|-------------------------------------2--222--4-|


e|-----------------------------------------------------------|
B|-----------------------------------------------------------|
G|-6--666--8--9-9--8-8--6--4--4444--6-------------6----------|
D|-6--666--8--9-9--8-8--6--4--4444--6--4--444--6--6|
A|-4--444--6--7-7--6-6--4--2--2222--4--4--444--6--4----------|
E|-------------------------------------2--222--4-------------|

So there you go! 'Castle of Glass' done! Feel free to comment, and queries, please send 
them to my email address given on top. :D





Comments


Popular Linkin Park tabs & chords
New Divide 3 Bass Tabs
Breaking The Habit Chords
By Myself 2 Tabs
Forgotten 2 Tabs
Forgotten 4 Tabs
Halo Tabs
No More Sorrow 6 Tabs
Pale Tabs
Somewhere I Belong Chorus Tabs
Crawling Acousitc Ukulele


Song lyrics



↑ Back to top | Tablatures and chords are parodies/interpretations of the original songs. You may use it for private study, scholarship, research or language learning purposes only
© 2014 AZChords.com Contact us | Privacy policy | DMCA | Add/correct tabs | Request tabs | Top 50 tabs