» » »

By Myself Tabs (ver.3)

Artists:  A B C D E F G H I J K L M N O P Q R S T U V W X Y Z # 

By Myself Tabs (ver.3)

Linkin Park
Rating:
0/5 (0 votes)

Hard to play? Try these video lessons and learn fast.
                "Tuning C# G# C# F# A# D#

x = pick scr*pe
pm = palm mute
* = natural harmonic

Intro/Verse/Brige:
D#|-------------------------|
A#|-------------------------|
F#|------------------5*-----|
C#|--0-0-0--0--7-7----------|
G#|--0-0-0--0--7-7----------|
C#|--0-0-0--0--7-7----------|
PM   . . .  .

Fill:
D#|--------------|
A#|--------------|
F#|--------------|
C#|--0-0-0--0----|
G#|--0-0-0--0----|
C#|--0-0-0--0----|
PM   . . .  .

Chorus:
D#|---------------------------------||
A#|---------------------------------||
F#|---------------------------------||o
C#|--7~--------3-x-x--x-0~--x-x--x--||o
G#|--7~--------3-x-x--x-0~--x-x--x--||
C#|--7~--------3-x-x--x-0~--x-x--x--||

Pre Bridge:
D#|----------------|
A#|----------------|
F#|----------------|
C#|----------------|
G#|----------------|
C#|--0-0-0--0--7-7-|
PM   . . .  .

Thats it, very easy song.  Have fun.

Please rate also  =)
"            
Hard to play? Try these video lessons and learn fast. | Correct




comments powered by Disqus
↑ Back to top | Tablatures and chords are parodies/interpretations of the original songs. You may use it for private study, scholarship, research or language learning purposes only