» » »

Linkin Park, By Myself Remix Tabs (ver.1)

Artists:  A B C D E F G H I J K L M N O P Q R S T U V W X Y Z # 

By Myself Remix Tabs (ver.1)

Linkin Park Tabs
 Rating:
4/5 (4 votes)
By Myself Remix lessons Tabs too difficult? Try these video lessons and learn fast
1
                Yo.

I'm only sixteen.

probably the first Linkin Park tab to be posted in thiz joint. I did this
song "By Myself" by myself. Get it? So i would like some feedback after you have

Thiz rad song iz very reggae and i like it becoz' of itz guitar riffs. Itz the
least popular song in both Hybrid Theory n Reanimation, but i still love it,
becoz it relates a lot to me. Tuning is drop D (DADGBE).

By_MySLF:

INTRO
e ------------------------------------------------------------------
b ------------------------------------------------------------------
g ------------------------------------------------------------------
d ------------------------------------------------------------------
a -00000000--3333-1111--00000000--3333-7777-------------------------
d ------------------------------------------------------------------

e ------------------------------------------------------------------
b ------------------------------------------------------------------
g ------------------------------------------------------------------
d -0-0-0-0--3-3--1-1--0-0-0-0--3-3--7-7-7---------------------------
a -0-0-0-0--3-3--1-1--0-0-0-0--3-3--7-7-7---------------------------
d -0-0-0-0--3-3--1-1--0-0-0-0--3-3--7-7-7---------------------------
x2

"M/m/m/m/myself!!!"
e ------12*--------------12*-----------------------------
b ------------------------------------------------------------------
g ------------------------------------------------------------------
d ------------------------------------------------------------------
a ------------------------------------------------------------------
d -1----------------------------------------------------------------
* = distortion

VERSE 1
"What do i do..."
e -------------12*--------------12*---------------------------------
b ------------------------------------------------------------------
g ------------------------------------------------------------------
d ------------------------------------------------------------------
a -0-0---0-0-------0-0---0-0------1h3-3---3p1-1---3h1-1---3p1-1--00-
d -0-0---0-0-------0-0---0-0------1h3-3---3p1-1---3h1-1---3p1-1--00-

CHORUS
"Myself! But in my mind if i..."
e ------------------------------------------------------------------
b ------------------------------------------------------------------
g ------------------------------------------------------------------
d -000-3--xxxxx-000-3--xxxxx-000-3--xxxxx-000-3-xxxxx-00------------
a -000-3--xxxxx-000-3--xxxxx-000-3--xxxxx-000-3-xxxxx-00------------
d -000-3--xxxxx-000-3--xxxxx-000-3--xxxxx-000-3-xxxxx-00------------

BRIDGE
"I can't hold on (it's too much to take in)..."
e ------------------------------------------------------------------
b ------------------------------------------------------------------
g ------------------------------------------------------------------
d -0-0-0-0--3-3--1-1--0-0-0-0--3-3--7-7-7---------------------------
a -0-0-0-0--3-3--1-1--0-0-0-0--3-3--7-7-7---------------------------
d -0-0-0-0--3-3--1-1--0-0-0-0--3-3--7-7-7---------------------------
x2

VERSE 2
"If i turn..."
e -------------12*--------------------------------------------------
b ------------------------------------------------------------------
g ------------------------------------------------------------------
d ------------------------------------------------------------------
a -0-0---0-0------1h3-3---3p1-1---3h1-1---3p1-1--00-----------------
d -0-0---0-0------1h3-3---3p1-1---3h1-1---3p1-1--00-----------------

CHORUS
e ------------------------------------------------------------------
b ------------------------------------------------------------------
g ------------------------------------------------------------------
d -000-3--xxxxx-000-3--xxxxx-000-3--xxxxx-000-3-xxxxx-00------------
a -000-3--xxxxx-000-3--xxxxx-000-3--xxxxx-000-3-xxxxx-00------------
d -000-3--xxxxx-000-3--xxxxx-000-3--xxxxx-000-3-xxxxx-00------------

BRIDGE
e ------------------------------------------------------------------
b ------------------------------------------------------------------
g ------------------------------------------------------------------
d -0-0-0-0--3-3--1-1--0-0-0-0--3-3--7-7-7---------------------------
a -0-0-0-0--3-3--1-1--0-0-0-0--3-3--7-7-7---------------------------
d -0-0-0-0--3-3--1-1--0-0-0-0--3-3--7-7-7---------------------------
x2

INTERLUDE
"Don't you KNOW!!!"
e ------------------------------------------------------------------
b ------------------------------------------------------------------
g ------------------------------------------------------------------
d -777777777-55555555-33333333-22222222-----------------------------
a -777777777-55555555-33333333-22222222-----------------------------
d -777777777-55555555-33333333-22222222-----------------------------
x4

Myself!!!!
M/m/m/m/myself!!!!

What do i do to ignore them behind me?
Do i follow my instinct blindly?
Do i hide myself from this bad dreams
Or give in the sad thoughts that are maddening?
Do i sit here and try to stand it?
Or do i try to catch them red-handed?
Do i trust some and get fooled by phoniness, 
Or do I trust nobody and live in loneliness? 
Because I can't hold on when I'm stretched so thin 
I make the right moves but I'm lost within 
I put on my daily façade but then 
I just end up getting hurt again 
By myself

Myself!
I ask why
But in my mind i find
I can't rely on myself
Myself/f/f/f!!!!
I ask why
But in my mind i find
I can't rely on myself

I can't look around
It's too much to take in
I can't slow down
Watching everything spin
I can't hold on
When i'm stretched so thin
I can't hold on
Starting over again...

If I turn my back I'm defenseless 
And to go blindly seems senseless 
If I hide my pride and let it all go on 
Then they'll take from me 'till everything is gone 
If I let them go I'll be outdone 
But if I try to catch them I'll be outrun 
If I'm killed by the questions like a cancer 
Then I'll be buried in the silence of the answer 
By myself 

Myself!
I ask why
But in my mind i find
I can't rely on myself
Myself/f/f/f!!!!
I ask why
But in my mind i find
I can't rely on myself

I can't look around
It's too much to take in
I can't slow down
Watching everything spin
I can't hold on
When i'm stretched so thin
I can't hold on
Starting over again...

Don't you... (x15)
Don't you know 
I can't tell you how to make it go 
No matter what I do, how hard I try 
I can't seem to convince myself why 
I'm stuck on the outside (x8)



Peace 2 e world
Sarch The Dragon.
            
Submit corrections

comments powered by Disqus
↑ Back to top | Linkin Park Tabs for By Myself Remix. Lyrics for acoustic guitar and electric guitar. 1 Tablatures and chords are parodies/interpretations of the original songs. You may use it for private study, scholarship, research or language learning purposes only