» » »

By Myself Tabs (ver.1)

Artists:  A B C D E F G H I J K L M N O P Q R S T U V W X Y Z # 

By Myself Tabs (ver.1)

Linkin Park
Rating:
0/5 (0 votes)

Hard to play? Try these video lessons and learn fast.
                PROPS GO TO: MusicManiac77

Linkin Park
"By Myself"
Hybrid Theory

Tuning - Drop D
1 - Eb  2 - Bb  3 - Gb
4 - Db  5 - Ab  6 - Db

Intro: Play 3 Times
---------------|| ------------------------ ||------------------------
---------------|| ------------------------ ||------------------------
---------------||.------------------------.||------------------------
--1--1----1--1/||.-7--7--9----1--1---1--1/.||-7--7---9--1--1---1--1--
--1--1----1--1/|| -7--7-------1--1---1--1/ ||-7--7------1--1---1--1--
--1--1----1--1/|| -7--7-------1--1---1--1/ ||-7--7------1--1---1--1--

Verses 1 & 2:
-------------------------|---------------------|
--13---------------------|--12-----------------|
-------------------------|---------------------|
--10---------------------|--9------------------|
--12---------------------|--10-----------------|
-------------------------|---------------------|

--10---------------------|--8-------7----------|
-------------------------|---------------------|
---7---------------------|--5-------4----------|
-------------------------|---------------------|
---8---------------------|--7-------5----------|
-------------------------|---------------------|

Chorus:
------------------------------|---------------------------------|
------------------------------|---------------------------------|
------------------------------|---------------------------------|
--7-----------------------(7)\|-3----3-3---3----3----0----------|
--7-----------------------(7)\|-3----3-3---3----3----0----------|
--7-----------------------(7)\|-3----3-3---3----3----0--7--7--7-|

Verse 3 Play 2 Times:
---------------------------------||-----------------------------------|
---------------------------------||-----------------------------------|
---------------------------------||-----------------------------------|
--3----3--3---3---0----x--x---x--||--7---7--------------1--1-----1--1/|
--3----3--3---3---0----x--x---x--||--7---7--------------1--1-----1--1/|
--3----3--3---3---0----x--x---x--||--7---7--------------1--1-----1--1/|


Enjoy learning how to play this song.
            
Hard to play? Try these video lessons and learn fast. | Correct




comments powered by Disqus
↑ Back to top | Tablatures and chords are parodies/interpretations of the original songs. You may use it for private study, scholarship, research or language learning purposes only