» » »

Linkin Park, Breaking The Habit Tabs (ver.3)

Artists:  A B C D E F G H I J K L M N O P Q R S T U V W X Y Z # 

Breaking The Habit Tabs (ver.3)

Linkin Park Tabs
 Rating:
4/5 (4 votes)
Breaking The Habit lessons Tabs too difficult? Try these video lessons and learn fast
                Linkin Park - Breaking The Habit
Tuning (low to high) Db, Ab, Db, Gb, Bb, Eb  (C#, G#, C#, F#, A#, D#)

Intro (keyboard)
Eb -----------------------------------------------------
Bb ------11-9-8------------11-9-8--------9-8----11-9-8--
Gb --10----------X5----10---------10---------10---------
Db ----------------------------------10-----------------
Ab -----------------------------------------------------
Db -----------------------------------------------------

Guitar (clean, palm muted)
Eb ----------------------------------------
Bb ----------------------------------------
Gb ----------------------------------------
Db ----------13----------------------------
Ab --15--13----15-15--15--13-16--15-15-----
Db ----------------------------------------

Verse 
Guitar (clean, palm muted)
Eb ----------------------------------------
Bb ----------------------------------------
Gb ----------------------------------------
Db ----------13---------------------------- repeat
Ab --15--13----15-15--15--13-16--15-15-----
Db ----------------------------------------

Chorus
Part 1
Eb -----------------------
Bb -----------------------
Gb -----------------------
Db ----------13--13-15----
Ab --15--15---------------
Db -----------------------

Part 2
‘So I’m breaking the habit….’
Eb ----------------------
Bb ----------------------
Gb ----------------------
Db ------15-13--13-15----
Ab --15------------------
Db ----------------------
            
Submit corrections

comments powered by Disqus
↑ Back to top | Linkin Park Tabs for Breaking The Habit. Lyrics for acoustic guitar and electric guitar. Tablatures and chords are parodies/interpretations of the original songs. You may use it for private study, scholarship, research or language learning purposes only