» » »

A Place In My Head Tabs (ver.1)

Artists:  A B C D E F G H I J K L M N O P Q R S T U V W X Y Z # 

A Place In My Head Tabs (ver.1)

Linkin Park
Rating:
0/5 (0 votes)

Hard to play? Try these video lessons and learn fast.
                Linkin Park
A Place For My Head

Tuning Drop D  	The correct way to play it.
(DADGBE)

Intro: 
----------------------------------------------
----------------------------------------------
----------------------------------------------
----------888-9-8-6--------------------------- (8x)
-6--6-------------------99-7777-9-------------
----------------------------------------------

Verse:      w/ distortion
----------------------------------------------
----------------------------------------------
----------------------------------------------
----------888-9-8-6---------------------------(6x)
-6--6-------------------99-7777-9-------------
----------------------------------------------

Chorus:	 w/ heavy distortion
----------------------------------------------
----------------------------------------------
----------------------------------------------
-12\--1--1-----------6-4-2-2-2-4-------------- (1x)
-12\--1--1--1-2-1----6-4-2-2-2-4--------------
-12\--1--1-----------6-4-2-2-2-4--------------

Chorus 2:	   w/ heavy distortion
---------------------------------------------
---------------------------------------------
---------------------------------------------
--1--1-----------6-4-2-2-2-4----------------- (3x)
--1--1--1-2-1----6-4-2-2-2-4-----------------
--1--1-----------6-4-2-2-2-4-----------------

Verse:   w/distortion
---------------------------------------------
---------------------------------------------
---------------------------------------------
----------888-9-8-6-------------------------- (4x)
-6--6-------------------99-7777-9------------
---------------------------------------------
                              
Interlude:  w/ distortion
-1--------------4----------------------1------------------4------ (1x)
-1--------------4----------------------1------------------4------
-1--------------4----------------------1------------------4------

Play Chorus (4x)   
Then there is a bass fill    
Play Chorus(8x)

ENDING:
---------------------------------------
---------------------------------------
---------------------------------------(8x)
-1-1--1-1-1-1--1-1-1--1-1-1-1--4-------
-1-1--1-1-1-1--1-1-1--1-1-1-1--4-------
-1-1--1-1-1-1--1-1-1--1-1-1-1--4------
 P.M first 4 times

Thats about it.
            
Hard to play? Try these video lessons and learn fast. | Correct




comments powered by Disqus
↑ Back to top | Tablatures and chords are parodies/interpretations of the original songs. You may use it for private study, scholarship, research or language learning purposes only