» » »

Linkin Park, A Place For My Head C# Tabs (ver.1)

Artists:  A B C D E F G H I J K L M N O P Q R S T U V W X Y Z # 

A Place For My Head C# Tabs (ver.1)

Linkin Park Tabs
 Rating:
4/5 (4 votes)
A Place For My Head C# lessons Tabs too difficult? Try these video lessons and learn fast
1
                C# Tuning

x = mute
. = palm mute

Intro/Verse (Intro is Clean, Verse Distorted)
D#|-------------------------------------|
A#|-------------------------------------|
F#|-------------------------------------|
C#|------999-10-9-7---------------------|
G#|--7-7--------------10-10-8-888-8-10--|
C#|-------------------------------------|

Pre Chorus: Let Ring
D#|-------------------|
A#|-------------------|
F#|-------------------|
C#|--2~------5~-------|
G#|--2~------5~-------|
C#|--2~------5~-------|

Verse(for here, play second part a lil slower)
D#|-----------------------------------------|
A#|-----------------------------------------|
F#|-----------------------------------------|
C#|------999-10-9-7-----------------------|
G#|--7-7---------------10-10-8-888-8-10--|
C#|-----------------------------------------|
Slower                 ...................

Chorus
D#|--------------------------------|
A#|--------------------------------|
F#|--------------------------------|
C#|--2-2----9-10p9--77--55-33-3-5--|
G#|--2-2----9-10p9--77--55-33-3-5--|
C#|--2-2----9-10p9--77--55-33-3-5--|

Bridge (palm muted, except for last chord)
D#|---------------------------------|
A#|---------------------------------|
F#|---------------------------------|
C#|-2-2--2-2-2-2--2-2-2--2-2-2-2-5--|
G#|-2-2--2-2-2-2--2-2-2--2-2-2-2-5--|
C#|-2-2--2-2-2-2--2-2-2--2-2-2-2-5--|
    . .  . . . .  . . .  . . . .

Outro
D#|------------------------------|
A#|------------------------------|
F#|------------------------------|
C#|--2-2--2-2-2--2-2-2--2-2-2-5--|
G#|--2-2--2-2-2--2-2-2--2-2-2-5--|
C#|--2-2--2-2-2--2-2-2--2-2-2-5--|


HERES A NEW VERSION OF THIS SONG.  I DONT THINK THAT 10.10.12 CHORD
SOUNDED GOOD ON THE BRIDGE, OUTRO.  ANYWAYS, PLEASE RATE!
            
Submit corrections

comments powered by Disqus
↑ Back to top | Linkin Park Tabs for A Place For My Head C#. Lyrics for acoustic guitar and electric guitar. 1 Tablatures and chords are parodies/interpretations of the original songs. You may use it for private study, scholarship, research or language learning purposes only