» » »

About To Break Tabs (ver.1)

Artists:  A B C D E F G H I J K L M N O P Q R S T U V W X Y Z # 

About To Break Tabs (ver.1)

Linkin Park
Rating:
0/5 (0 votes)

Hard to play? Try these video lessons and learn fast.
                Me and my friend performed this track at my little brothers school , and it woke them up a bit !! ha ha 
well enjoy ...


Intro part one...
E|-----------------------------------------|  (Clean)
B|-----------------------------------------|
G|-----------------------------------------|
D|-----------------------------------------|
A|-----------------7-----------------------| (X3)
E|----0---(5)--(7)---8--(7)--0--3----------|
 


Intro part two...
E|-----------------------------------------|  (Distortion)
B|-----------------------------------------|
G|-----------------------------------------|
D|---0---0---0-9---8--7--X--5--------------|
A|---0---0---0-7---8--7--X--5--------------|
E|---0---0---0-----8--7--X--3--------------|
            
Hard to play? Try these video lessons and learn fast. | Correct




comments powered by Disqus
↑ Back to top | Tablatures and chords are parodies/interpretations of the original songs. You may use it for private study, scholarship, research or language learning purposes only