» » »

Linkin Park, A06 Lpu Tabs (ver.1)

Artists:  A B C D E F G H I J K L M N O P Q R S T U V W X Y Z # 

A06 Lpu Tabs (ver.1)

Linkin Park Tabs
 Rating:
4/5 (4 votes)
A06 Lpu lessons Tabs too difficult? Try these video lessons and learn fast
                (Cd)
i played this in drop D just ran a ton of distortion through it and it sounded fine.  i saw the other tabs on here for this but felt something had been left out.  for one i dont think the whole thing is palm muted


--------------------------------------
--------------------------------------
-------------------------------------- x2
--------------------------------------
--------------------------------------
---7p6p0--00--1p0--00--01p0-1p0--00---
pm        ..       ..  .         ..

--------------------------------------
--------------------------------------
-------------------------------------- x3 
--------------------------------------
---7p6p0--00--1p0--00--01p0-1p0--00---
---7p6p0--00--1p0--00--01p0-1p0--00---
pm        ..       ..  .         ..


--------------------------------------
--------------------------------------
--------------------------------------
--------------------------------------
---7p6p0--00--1p0--00-----------------
---7p6p0--00--1p0--00-----------------
pm        ..       ..


--------------------------------------
--------------------------------------
-------------------------------------- x8
--------------------------------------
--0-2-1-0-6-0-2-3-0-3-4-0-7-3-1-------
--0-2-1-0-6-0-2-3-0-3-4-0-7-3-1.......

open palm mutes to the end
            
Submit corrections

comments powered by Disqus
↑ Back to top | Linkin Park Tabs for A06 Lpu. Lyrics for acoustic guitar and electric guitar. Tablatures and chords are parodies/interpretations of the original songs. You may use it for private study, scholarship, research or language learning purposes only