» » »

Linkin Park, A.06 Tabs (ver.1)

Artists:  A B C D E F G H I J K L M N O P Q R S T U V W X Y Z # 

A.06 Tabs (ver.1)

Linkin Park Tabs
 Rating:
4/5 (4 votes)
A.06 lessons Tabs too difficult? Try these video lessons and learn fast
                LINKIN PARK- A06

Tuning: drop d and a half step down.
 


 Intro(Palm Muted)
Eb|-----------------------------------------------|
Bb|-----------------------------------------------|
Gb|-----------------------------------------------|
Db|-----------------------------------------------|    x7
Ab|-----------------------------------------------|
Db|-6^(7)-0-0-0-1-0-0-0---0-1-0-1-0-0-0-----------|
    |     | | | | | | | | | | | | | | |
    1           2       3       4
  

Bb|-----------------------------------------------|
Gb|-----------------------------------------------|
Db|-----------------------------------------------|   
Ab|-----------------------------------------------|
Db|-6^(7)-0-0-0-1-0-0-0---------------------------|
    |     | | | | | | | | | | | | | | |
    1           2       3       4




Heavy Intro Part
Eb|-----------------------------------------------|
Bb|-----------------------------------------------|
Gb|-----------------------------------------------|
Db|-----------------------------------------------|   x4
Ab|-8-7-0-0-8-7-0-0~~-0-8-7-8-7-0-0---------------|
Db|-8-7-0-0-8-7-0-0~~-0-8-7-8-7-0-0---------------|
    | | | | | | | | | | | | | | | |
    1       2       3       4
   
   


Verse (Palm muted)
Eb|-----------------------------------------------|
Bb|-----------------------------------------------|
Gb|-----------------------------------------------|
Db|-----------------------------------------------|   x8
Ab|-----------------------------------------------|
Db|-8-7-0-0-8-7-0-0---0-8-7-8-7-0-0---------------|
    | | | | | | | | | | | | | | | |
    1       2       3       4
   
Chorus
Eb|---------------------------------|---------------------------------|
Bb|---------------------------------|---------------------------------|
Gb|---------------------------------|---------------------------------|
Db|---------------------------------|---------------------------------|  X2
Ab|-8-7-0-0-8~~~8~~~3~~~~~3---------|-0-3-3-3-3-3-2-0-5~~~~~5---------|
Db|-8-7-0-0-8~~~8~~~3~~~~~3-8-7-8-7-|-0-3-3-3-3-3-2-0-5~~~~~5-8-7-8-7-|
    | | | | | | | | | | | | | | | |   | | | | | | | | | | | | | | | |
    1       2       3       4         1       2       3       4



Interlude
Eb|-----------------------------------------------|
Bb|-----------------------------------------------|
Gb|-----------------------------------------------|
Db|-----------------------------------------------|   x2
Ab|-8-7-0-0-8-7-0-0~~-0-8-7-8-7-0-0---------------|
Db|-8-7-0-0-8-7-0-0~~-0-8-7-8-7-0-0---------------|
    | | | | | | | | | | | | | | | |
    1       2       3       4




Verse 2 (Palm muted)
Eb|-----------------------------------------------|
Bb|-----------------------------------------------|
Gb|-----------------------------------------------|
Db|-----------------------------------------------|   x8
Ab|-----------------------------------------------|
Db|-8-7-0-0-8-7-0-0---0-8-7-8-7-0-0---------------|
    | | | | | | | | | | | | | | | |
    1       2       3       4


Chorus 2
Eb|---------------------------------|---------------------------------|
Bb|---------------------------------|---------------------------------|
Gb|---------------------------------|---------------------------------|
Db|---------------------------------|---------------------------------|  x4
Ab|-8-7-0-0-8~~~8~~~3~~~~~3---------|-0-3-3-3-3-3-2-0-5~~~~~5---------|
Db|-8-7-0-0-8~~~8~~~3~~~~~3-8-7-8-7-|-0-3-3-3-3-3-2-0-5~~~~~5-8-7-8-7-|
    | | | | | | | | | | | | | | | |   | | | | | | | | | | | | | | | |
    1       2       3       4         1       2       3       4


Breakdown 
Eb|-----------------------------------------------|
Bb|-----------------------------------------------|
Gb|-----------------------------------------------|
Db|-----------------------------------------------|    x7
Ab|-----------------------------------------------|
Db|-6^(7)-0-0-0-1-0-0-0---0-1-0-1-0-0-0-----------|
    |     | | | | | | | | | | | | | | |
    1           2       3       4

Eb|-----------------------------------------------|
Bb|-----------------------------------------------|
Gb|-----------------------------------------------|
Db|-----------------------------------------------|    
Ab|-----------------------------------------------|
Db|-6^(7)-0-0-0-1-0-0-0---------------------------|
    |     | | | | | | | | | | | | | | |
    1           2       3       4



Bridge
Eb|----------------------------------|
Bb|----------------------------------|
Gb|-----------------------------7*---|
Db|-6^(7)---1-0---0-0-1-0-1-0--------|  x8(at the last time don't play 7*)
Ab|-6^(7)---1-0---0-0-1-0-1-0--------|
Db|-6^(7)---1-0---0-0-1-0-1-0--------|
    | | | | | | | | | | | | | | | |
    1       2       3       4



Chorus 3
Eb|---------------------------------|---------------------------------|
Bb|---------------------------------|---------------------------------|
Gb|---------------------------------|---------------------------------|
Db|---------------------------------|---------------------------------|  x4
Ab|-8-7-0-0-8~~~8~~~3~~~~~3---------|-0-3-3-3-3-3-2-0-5~~~~~5---------|
Db|-8-7-0-0-8~~~8~~~3~~~~~3-8-7-8-7-|-0-3-3-3-3-3-2-0-5~~~~~5-8-7-8-7-|
    | | | | | | | | | | | | | | | |   | | | | | | | | | | | | | | | |
    1       2       3       4         1       2       3       4

Outro
Eb|---------------------------------|
Bb|---------------------------------|
Gb|---------------------------------|
Db|---------------------------------|  x2
Ab|-0-3-3-3-3-3-2-0-5~~~~~5---------|
Db|-0-3-3-3-3-3-2-0-5~~~~~5-8-7-8-7-|
    | | | | | | | | | | | | | | | |   
    1       2       3       4         

Eb|-----------------------------------------------|
Bb|-----------------------------------------------|
Gb|-----------------------------------------------|
Db|-----------------------------------------------|   x3
Ab|-8-7-0-0-8-7-0-0~~-0-8-7-8-7-0-0---------------|
Db|-8-7-0-0-8-7-0-0~~-0-8-7-8-7-0-0---------------|
    | | | | | | | | | | | | | | | |
    1       2       3       4
   
Eb|-----------------------------------------------|
Bb|-----------------------------------------------|
Gb|-----------------------------------------------|
Db|-----------------------------------------------|   
Ab|-8-7-0-0-8-7-0-0~~~~---------------------------|
Db|-8-7-0-0-8-7-0-0~~~~---------------------------|
    | | | | | | | | | | | | | | | |
    1       2       3       4

I think the Tab is 97% correct.
Please rate & enjoy!


Legend:
~ hold
* harmonic
^ bend
            
Submit corrections

comments powered by Disqus
↑ Back to top | Linkin Park Tabs for A.06. Lyrics for acoustic guitar and electric guitar. Tablatures and chords are parodies/interpretations of the original songs. You may use it for private study, scholarship, research or language learning purposes only