>
 >
1stp Klosr

1stp Klosr Bass Tabs

Linkin Park - 1stp Klosr chords, tabs, tablatures, lyrics

Guitar lessons | Add/correct | Request | Top 50 tabs Artists:  A B C D E F G H I J K L M N O P Q R S T U V W X Y Z 0-9

1stp Klosr Bass Tabs – Linkin Park

CD, Sheet music, Poster

Do you like 1stp Klosr? Share with your friends now
Bass Tabs
This is a really long song, so I included the times 
at the different riffs.          
STANDARD TUNING FOR 5 STRING (B,E,A,D,G)

RIFF 1 (1:04)

G|------------------||
D|------------------||
A|------------------||
E|--0:--------------||
B|------------------||


RIFF 2 (1:20)           RIFF 3 (1:22)   RIFF 4 (1:46) 

G|---------------------|---------------|-------------||
D|---------------------|---------------|-------------||
A|---------------------|---------------|-------------||
E|---------------------|---------------|-------------||
B|--4-4----2-X-2--4-4--|-2-X-2---4-4---|-2-X-2--4-4--||


RIFF 5 (1:53)  RIFF 6 (2:03)

G|------------|---------------------------------||
D|------------|---------------------------------||
A|------------|---------------------------------||
E|------------|---------------------------------||
B|-2h4-4p2----|-2h5-5---5h7-7---7h9-9---9/2-----||


RIFF 7 (4:32)             RIFF 8 (4:39)   
 
G|-----------------------|---------------------------------||
D|-----------------------|---------------------------------||
A|-----------------------|---------------------------------||
E|--------------------3--|---------------------------------||
B|-3-2-X-X-2-5-2-3-2-----|-3-2-X-X-2-5-2-3---3-3-3---------||


RIFF 9 (4:52) Everything you say to me...

G|-------------------------------------||
D|-------------------------------------||
A|-------4--2-2-X-4--------------------||
E|-------------------5-5-X-2--4-4------||
B|-2-2-X--------------------------X-3--||


RIFF 10 (4:57)

G|------------------------------------------||
D|------------------------------------------||
A|-------4--2-2-X-4-------------------------||
E|-------------------5-5-X-2--4-4-----------||
B|-2-2-X---------------------------3-3-3-3--||


RIFF 11 (5:32) You have to do those last several 3's really fast. 
I think there's fifteen three's, but like I said it goes really
fast, so you might want to listen to the song carefully.
 
G|---------------------------------------------------------||
D|---------------------------------------------------------||
A|---------------------------------------------------------||
E|---------------------------------------------------------||
B|-3-3-3-3-3-3-3-3----333333333333333--3:------------------||


Song Order (w/riff times)

RIFF 1.....1:04
RIFF 2.....1:20
RIFF 3.....1:22 (6X)
RIFF 4.....1:46
RIFF 5.....1:53 (4X)
RIFF 6.....2:03 (4X)
RIFF 5.....2:17 (4X)
RIFF 6.....2:27 (4X)
RIFF 2.....2:52
RIFF 3.....2:54 (16X)
RIFF 6.....4:23 (4X)
RIFF 7.....4:32 (3X)
RIFF 8.....4:39
RIFF 7.....4:43 (3X)
RIFF 8.....4:49
RIFF 9.....4:52 (2X)
RIFF 10....4:57
RIFF 9.....5:02 (2X)
RIFF 10....5:07
RIFF 9.....5:12 (4X)
RIFF 11....5:32

Well, there it is. I hope you enjoy playing this awesome song.If 
you see something wrong or just don't like the tab, by all means, 
send a correction. Have fun playing!!





Comments


Popular Linkin Park tabs & chords
Blackbirds 2 Bass Tabs
Crawling Bass Tabs
In The End 3 Bass Tabs
New Divide 2 Chords
Breaking The Habit 1 Tabs
Burn It Down 2 Tabs
Crwaling Tabs
Hybrid Theory - 08 - A Place For My Head Tabs
Its Goin Down Tabs
Pushing Me Away Tabs


Song lyrics



↑ Back to top | Tablatures and chords are parodies/interpretations of the original songs. You may use it for private study, scholarship, research or language learning purposes only
© 2014 AZChords.com Contact us | Privacy policy | DMCA | Add/correct tabs | Request tabs | Top 50 tabs