» » »

1 Step Closer Tabs (ver.1)

Artists:  A B C D E F G H I J K L M N O P Q R S T U V W X Y Z # 

1 Step Closer Tabs (ver.1)

Linkin Park
Rating:
0/5 (0 votes)

Hard to play? Try these video lessons and learn fast.
                Tune: DADGBE
4/4 timing
H= Nataraul Harmonic
X=Mute with Freting hand

Intro  4X
-------------------------------------------------
-------------------------------------------------
-------------------------------------------------
-------------------------------------------------
---------------7---------------------------------
---0---5H----0----8-7H----0---3------------------

Verse 4X then 8X
--------------------------------------------------
--------------------------------------------------
---------9---------5------------------------------
--0-0----x--8-7--x-x------------------------------
--0-0----7--8-7--x-3------------------------------
--0-0--0----8-7--x--------------------------------

Pre chorus
------------------------------
------------------------------
------------------------------
------------------------------
-x-1-x-x---x-1-x-x---x-1-x-x--
-x-1-x-x---x-1-x-x---x-1-x-x--

Chorus 2X
---------------------------------------------
---------------------------------------------
---------------------------------------------
-0-0--12-12--10-10--7-7--8-8--5-5--7-7--3-3--
-0-0--12-12--10-10--7-7--8-8--5-5--7-7--3-3--
-0-0--12-12--10-10--7-7--8-8--5-5--7-7--3-3--

Verse 8X
--------------------------------------------------
--------------------------------------------------
---------9---------5------------------------------
--0-0----x--8-7--x-x------------------------------
--0-0----7--8-7--x-3------------------------------
--0-0--0----8-7--x--------------------------------

Pre chorus
------------------------------
------------------------------
------------------------------
------------------------------
-x-1-x-x---x-1-x-x---x-1-x-x--
-x-1-x-x---x-1-x-x---x-1-x-x--

D4--12H-12H-12H-12H---

Chorus 4X 
---------------------------------------------
---------------------------------------------
---------------------------------------------
-0-0--12-12--10-10--7-7--8-8--5-5--7-7--3-3--
-0-0--12-12--10-10--7-7--8-8--5-5--7-7--3-3--
-0-0--12-12--10-10--7-7--8-8--5-5--7-7--3-3--

Bridge1.
------------------------------------------------
------------------------------------------------
------------------------------------------------
-1--1--1--1--1--1--1--1-------------------------
-1--1--1--1--1--1--1--1-------------------------
-1--1--1--1--1--1--1--1-------------------------

                                 4X
-------------------------------------------------
-------------------------------------------------
-------------------------------------------------
-------------------------------------------------
---------------7---------------------------------
---0---5H----0----8-7H----0---3------------------

Bridge.2.                      3X
---------------------------------
---------------------------------
---------------------------------
--0--0-1-1--0-1-1--0-0--6-6-3-3--
--0--0-1-1--0-1-1--0-0--6-6-3-3--
--0--0-1-1--0-1-1--0-0--6-6-3-3--

------------------------------
------------------------------
------------------------------
--0--0-1-1--0-1-1--0-0--6-6---
--0--0-1-1--0-1-1--0-0--6-6---
--0--0-1-1--0-1-1--0-0--6-6---
Then repeat Bridge.2. again

Chorus 4X 
---------------------------------------------
---------------------------------------------
---------------------------------------------
-0-0--12-12--10-10--7-7--8-8--5-5--7-7--3-3--
-0-0--12-12--10-10--7-7--8-8--5-5--7-7--3-3--
-0-0--12-12--10-10--7-7--8-8--5-5--7-7--3-3--

Bridge1.
------------------------------------------------
------------------------------------------------
------------------------------------------------
-1--1--1--1--1--1--1--1-------------------------
-1--1--1--1--1--1--1--1-------------------------
-1--1--1--1--1--1--1--1-------------------------
                       Break!  
Please rate this
            
Hard to play? Try these video lessons and learn fast. | Correct




comments powered by Disqus
↑ Back to top | Tablatures and chords are parodies/interpretations of the original songs. You may use it for private study, scholarship, research or language learning purposes only