» » »

Linkin Park, 04 - Lying From You Tabs (ver.1)

Artists:  A B C D E F G H I J K L M N O P Q R S T U V W X Y Z # 

04 - Lying From You Tabs (ver.1)

Linkin Park Tabs
 Rating:
4/5 (4 votes)
04 - Lying From You lessons Tabs too difficult? Try these video lessons and learn fast
                Intro/Bridge 
Eb|---------|-----------------------|-----------------------|
Bb|---------|-----------------------|-----------------------|
Gb|---------|-----------------------|-----------------------|
Db|-2-2-2-2-|-0-2-2-1-0-3-2-1--0--6-|-0-2-2-1-0-3-2-1--0--6-|
Ab|-2-2-2-2-|-0-2-2-1-0-3-2-1--0--6-|-0-2-2-1-0-3-2-1--0--6-|
Db|-2-2-2-2-|-0-2-2-1-0-3-2-1--0--6-|-0-2-2-1-0-3-2-1--0--6-|
pm  . . . .

Eb|-----------------------|--------------------|---------|
Bb|-----------------------|--------------------|---------|
Gb|-----------------------|--------------------|---------|
Db|-0-2-2-1-0-3-2-1--0--6-|-0-2-2-1-0-3-2-1--0-|-2-2-2-2-|
Ab|-0-2-2-1-0-3-2-1--0--6-|-0-2-2-1-0-3-2-1--0-|-2-2-2-2-|
Db|-0-2-2-1-0-3-2-1--0--6-|-0-2-2-1-0-3-2-1--0-|-2-2-2-2-|
pm                                               . . . .

   Verse
Eb|------|------|-------|------|------|-------|
Bb|------|------|-------|------|------|-------|
Gb|------|-7-7--|-0-0-0-|------|-7-7--|-------|
Db|-2-2--|-7-7--|-0-0-0-|-2-2--|-7-7--|-0-0-0-|
Ab|-2-2--|-5-5--|-0-0-0-|-2-2--|-5-5--|-0-0-0-|
Db|-2-2--|-5-5--|-0-0-0-|-2-2--|-5-5--|-0-0-0-|

Eb|------|------|-------|------|-------------|
Bb|------|------|-------|------|-------------|
Gb|------|-7-7--|-0-0-0-|------|-7-7-7\9-9-9-|
Db|-2-2--|-7-7--|-0-0-0-|-2-2--|-7-7-7\9-9-9-|
Ab|-2-2--|-5-5--|-0-0-0-|-2-2--|-5-5-5\7-7-7-|
Db|-2-2--|-5-5--|-0-0-0-|-2-2--|-5-5-5\7-7-7-|

   Chorus
Eb|----------------------------------|---------------------|
Bb|----------------------------------|---------------------|
Gb|------11-11-11-11\7-7-7-7/9-9-9-9-|-7-7-7-7-7-----------|
Db|-2-2--X--X--X--X-\X-X-X-X/X-X-X-X-|-7-7-7-7-7-0-0-0-0-0-|
Ab|-2-2--9--9-9-9-9-\5-5-5-5/7-7-7-7-|-5-5-5-5-5-0-0-0-0-0-|
Db|-2-2------------------------------|-5-5-5-5-5-0-0-0-0-0-|

Eb|----------------------------------|---------------------|
Bb|----------------------------------|---------------------|
Gb|-7-7--11-11-11-11\7-7-7-7/9-9-9-9-|---------------------|
Db|-7-7--X--X--X--X-\X-X-X-X/X-X-X-X-|-7-7-7-7-7-0-0-0-0-0-|
Ab|-5-5--9--9-9-9-9-\5-5-5-5/7-7-7-7-|-7-7-7-7-7-0-0-0-0-0-|
Db|-5-5------------------------------|-7-7-7-7-7-0-0-0-0-0-|
            
Submit corrections

comments powered by Disqus
↑ Back to top | Linkin Park Tabs for 04 - Lying From You. Lyrics for acoustic guitar and electric guitar. Tablatures and chords are parodies/interpretations of the original songs. You may use it for private study, scholarship, research or language learning purposes only