» » »

Linkin Park, 02 - Don Stay Tabs (ver.1)

Artists:  A B C D E F G H I J K L M N O P Q R S T U V W X Y Z # 

02 - Don Stay Tabs (ver.1)

Linkin Park Tabs
 Rating:
4/5 (4 votes)
02 - Don	 Stay lessons Tabs too difficult? Try these video lessons and learn fast
1
                Sorry about this one, i realized after listenign to the song over and over, 
that the song is actually in Drop B, only song on the album that is i think. 
I also fixed the chorus after listening to it, and fixed the bridge thanks 
to the new tuning.

   Intro Part 1/Verse Part 1 (Turn Treble all the way up, Mids and Bass down all the way)
C#|-----------|-----------|
G#|-----------|-----------|
E |-----------|-----------|
B |-----------|-----------|
F#|-----------|-----------|
B |-0-0-0-7-3-|-5-5-5-8-7-|

   Intro Part 2/Verse Part 2
C#|-----------|-----------|
G#|-----------|-----------|
E |-----------|-----------|
B |-0-0-0-7-3-|-5-5-5-8-7-|
F#|-0-0-0-7-3-|-5-5-5-8-7-|
B |-0-0-0-7-3-|-5-5-5-8-7-|
 
   Verse Fill
C#|-----------|
G#|-----------|
E |-----------|
B |-1-1-1-1-1-|
F#|-1-1-1-1-1-|
B |-1-1-1-1-1-|

  Chorus
C#|------------|------------|
G#|------------|------------|
E |------------|------------|
B |-0-7-8-10-5-|-7--3--1--0-|
F#|-0-7-8-10-5-|-7--3--1--0-|
B |-0-7-8-10-5-|-7--3--1--0-|

   Bridge Part 1 [With Flanger] (Turn Treble all the way up, Mids and Bass down all the way)
G#|-----------|-----------|
C#|-----------|-----------|
E |-----------|-----------|
B |-----------|-----------|
F#|-----------|-----------|
B |-0-0-0-7-3-|-5-5-5-8-7-|

   Bridge Part 2
G#|---------|---------------|
C#|---------|---------------|
E |---------|-5-5-5-5-5-5/8-|
B |-0-0-1-0-|-X-X-X-X-X-X/X-|
F#|-0-0-1-0-|-5-5-5-5-5-5/6-|
B |-0-0-1-0-|---------------|

   Bridge Part 3
Eb|-------|-------|-------|-----------------|
Bb|-------|-------|-------|-----------------|
Gb|-------|-------|-------|-----------------|
Db|-1-1-1-|-1-1-1-|-1-1-1-|-1-1-1-1-1-1-1-1-|
Ab|-1-1-1-|-1-1-1-|-1-1-1-|-1-1-1-1-1-1-1-1-|
Db|-1-1-1-|-1-1-1-|-1-1-1-|-1-1-1-1-1-1-1-1-|
            
Submit corrections

comments powered by Disqus
↑ Back to top | Linkin Park Tabs for 02 - Don Stay. Lyrics for acoustic guitar and electric guitar. 1 Tablatures and chords are parodies/interpretations of the original songs. You may use it for private study, scholarship, research or language learning purposes only